  0
SECTION
  2
HEADER
  9
$ACADVER
  1
AC1009
  9
$INSBASE
 10
0
 20
0
 30
0
  9
$EXTMIN
 10
0
 20
0
  9
$EXTMAX
 10
1680
 20
1188
  9
$LIMMIN
 10
0
 20
0
  9
$LIMMAX
 10
1680
 20
1188
  9
$LTSCALE
 40
4
  0
ENDSEC
  0
SECTION
  2
TABLES
  0
TABLE
  2
LTYPE
 70
     9
  0
LTYPE
  2
CONTINUOUS
 70
    64
  3
実線
 72
    65
 73
     0
 40
0.0
  0
LTYPE
  2
DASHED1
 70
    64
  3
--  --  --  --  --  --  --  --  
 72
    65
 73
     2
 40
2.5
 49
1.25
 49
-1.25
  0
LTYPE
  2
DASHED2
 70
    64
  3
----    ----    ----    ----    
 72
    65
 73
     2
 40
5.0
 49
2.5
 49
-2.5
  0
LTYPE
  2
DASHED3
 70
    64
  3
------  ------  ------  ------  
 72
    65
 73
     2
 40
5.0
 49
3.75
 49
-1.25
  0
LTYPE
  2
CENTER1
 70
    64
  3
----- - ----- - ----- - ----- - 
 72
    65
 73
     4
 40
10.0
 49
6.25
 49
-1.25
 49
1.25
 49
-1.25
  0
LTYPE
  2
CENTER2
 70
    64
  3
----------  --  ----------  --  
 72
    65
 73
     4
 40
20.0
 49
12.5
 49
-2.5
 49
2.5
 49
-2.5
  0
LTYPE
  2
PHANTOM1
 70
    64
  3
--- - - --- - - --- - - --- - - 
 72
    65
 73
     6
 40
10.0
 49
3.25
 49
-1.25
 49
1.25
 49
-1.25
 49
1.25
 49
-1.25
  0
LTYPE
  2
PHANTOM2
 70
    64
  3
--------  -  -  --------  -  -  
 72
    65
 73
     6
 40
20.0
 49
10.0
 49
-2.5
 49
1.25
 49
-2.5
 49
1.25
 49
-2.5
  0
LTYPE
  2
DOT
 70
    64
  3
-   -   -   -   -   -   -   -   
 72
    65
 73
     2
 40
2.5
 49
0.625
 49
-1.875
  0
LTYPE
  2
DUMMY
 70
    64
  3
ダミー
 72
    65
 73
     0
 40
0.0
  0
LTYPE
  2
RAND1
 70
    64
  3
ランダム線1
 72
    65
 73
     4
 40
10.0
 49
1.0
 49
-2.0
 49
3.0
 49
-4.0
  0
LTYPE
  2
RAND2
 70
    64
  3
ランダム線2
 72
    65
 73
     4
 40
14.0
 49
2.0
 49
-3.0
 49
4.0
 49
-5.0
  0
LTYPE
  2
RAND3
 70
    64
  3
ランダム線3
 72
    65
 73
     4
 40
18.0
 49
3.0
 49
-4.0
 49
5.0
 49
-6.0
  0
LTYPE
  2
RAND4
 70
    64
  3
ランダム線4
 72
    65
 73
     4
 40
22.0
 49
4.0
 49
-5.0
 49
6.0
 49
-7.0
  0
LTYPE
  2
RAND5
 70
    64
  3
ランダム線5
 72
    65
 73
     4
 40
26.0
 49
5.0
 49
-6.0
 49
7.0
 49
-8.0
  0
LTYPE
  2
LONG1
 70
    64
  3
----------  --  ----------  --  
 72
    65
 73
     4
 40
40.0
 49
32.5
 49
-2.5
 49
2.5
 49
-2.5
  0
LTYPE
  2
LONG2
 70
    64
  3
--------  -  -  --------  -  -  
 72
    65
 73
     6
 40
40.0
 49
30.0
 49
-2.5
 49
1.25
 49
-2.5
 49
1.25
 49
-2.5
  0
LTYPE
  2
LONG3
 70
    64
  3
+++++++++++++++..+++++++++++++++
 72
    65
 73
     2
 40
40.0
 49
37.5
 49
-2.5
  0
LTYPE
  2
LONG4
 70
    64
  3
+++++++++++++++..+++++++++++++++
 72
    65
 73
     2
 40
80.0
 49
75.0
 49
-5.0
  0
LTYPE
  2
LONG5
 70
    64
  3
----------  --  ----------  --  
 72
    65
 73
     4
 40
60.0
 49
37.5
 49
-7.5
 49
7.5
 49
-7.5
  0
LTYPE
  2
dashed
 70
   64
  3
-------   -------------   ------
 72
   65
 73
    2
 40
7.5
 49
6
 49
-1.5
  0
LTYPE
  2
dashed_spaced
 70
   64
  3
----        --------        ----
 72
   65
 73
    2
 40
12
 49
6
 49
-6
  0
LTYPE
  2
long_dashed_dotted
 70
   64
  3
------------- --- --------------
 72
   65
 73
    4
 40
15.25
 49
12
 49
-1.5
 49
0.25
 49
-1.5
  0
LTYPE
  2
long_dashed_double-dotted
 70
   64
  3
----------- --- --- ------------
 72
   65
 73
    6
 40
17
 49
12
 49
-1.5
 49
0.25
 49
-1.5
 49
0.25
 49
-1.5
  0
LTYPE
  2
long_dashed_triplicate-dotted
 70
   64
  3
--------- --- --- --- ----------
 72
   65
 73
    8
 40
18.75
 49
12
 49
-1.5
 49
0.25
 49
-1.5
 49
0.25
 49
-1.5
 49
0.25
 49
-1.5
  0
LTYPE
  2
dotted
 70
   64
  3
   -       -       -       -    
 72
   65
 73
    2
 40
1.75
 49
0.25
 49
-1.5
  0
LTYPE
  2
chain
 70
   64
  3
-------------- -- --------------
 72
   65
 73
    4
 40
18.5
 49
12
 49
-1.5
 49
3.5
 49
-1.5
  0
LTYPE
  2
chain_double_dash
 70
   64
  3
------------ -- -- -------------
 72
   65
 73
    6
 40
23.5
 49
12
 49
-1.5
 49
3.5
 49
-1.5
 49
3.5
 49
-1.5
  0
LTYPE
  2
dashed_dotted
 70
   64
  3
-----------     -     ----------
 72
   65
 73
    4
 40
9.25
 49
6
 49
-1.5
 49
0.25
 49
-1.5
  0
LTYPE
  2
double-dashed_dotted
 70
   64
  3
------   -----------   -   -----
 72
   65
 73
    6
 40
16.75
 49
6
 49
-1.5
 49
6
 49
-1.5
 49
0.25
 49
-1.5
  0
LTYPE
  2
dashed_double-dotted
 70
   64
  3
---------    -    -    ---------
 72
   65
 73
    6
 40
11
 49
6
 49
-1.5
 49
0.25
 49
-1.5
 49
0.25
 49
-1.5
  0
LTYPE
  2
double-dashed_double-dotted
 70
   64
  3
-----   ---------   -   -   ----
 72
   65
 73
    8
 40
18.5
 49
6
 49
-1.5
 49
6
 49
-1.5
 49
0.25
 49
-1.5
 49
0.25
 49
-1.5
  0
LTYPE
  2
dashed_triplicate-dotted
 70
   64
  3
-------    -    -    -    ------
 72
   65
 73
    8
 40
12.75
 49
6
 49
-1.5
 49
0.25
 49
-1.5
 49
0.25
 49
-1.5
 49
0.25
 49
-1.5
  0
LTYPE
  2
double-dashed_triplicate-dotted
 70
   64
  3
-----  ---------  -  -  -  -----
 72
   65
 73
   10
 40
20.25
 49
6
 49
-1.5
 49
6
 49
-1.5
 49
0.25
 49
-1.5
 49
0.25
 49
-1.5
 49
0.25
 49
-1.5
  0
LTYPE
  2
undefined
 70
   64
  3
--------------------------------
 72
   65
 73
    0
 40
0
  0
LTYPE
  2
_
 70
   64
  3
                                
 72
   65
 73
    0
 40
0
  0
LTYPE
  2
__18
 70
   64
  3
                                
 72
   65
 73
    0
 40
0
  0
LTYPE
  2
__19
 70
   64
  3
                                
 72
   65
 73
    0
 40
0
  0
LTYPE
  2
__20
 70
   64
  3
                                
 72
   65
 73
    0
 40
0
  0
LTYPE
  2
__21
 70
   64
  3
                                
 72
   65
 73
    0
 40
0
  0
LTYPE
  2
__22
 70
   64
  3
                                
 72
   65
 73
    0
 40
0
  0
LTYPE
  2
__23
 70
   64
  3
                                
 72
   65
 73
    0
 40
0
  0
LTYPE
  2
__24
 70
   64
  3
                                
 72
   65
 73
    0
 40
0
  0
LTYPE
  2
__25
 70
   64
  3
                                
 72
   65
 73
    0
 40
0
  0
LTYPE
  2
__26
 70
   64
  3
                                
 72
   65
 73
    0
 40
0
  0
LTYPE
  2
__27
 70
   64
  3
                                
 72
   65
 73
    0
 40
0
  0
LTYPE
  2
__28
 70
   64
  3
                                
 72
   65
 73
    0
 40
0
  0
LTYPE
  2
__29
 70
   64
  3
                                
 72
   65
 73
    0
 40
0
  0
LTYPE
  2
__30
 70
   64
  3
                                
 72
   65
 73
    0
 40
0
  0
LTYPE
  2
__31
 70
   64
  3
                                
 72
   65
 73
    0
 40
0
  0
LTYPE
  2
__32
 70
   64
  3
                                
 72
   65
 73
    0
 40
0
  0
ENDTAB
  0
TABLE
  2
STYLE
  5
3
100
AcDbSymbolTable
 70
     1
  0
STYLE
  5
10
100
AcDbSymbolTableRecord
100
AcDbTextStyleTableRecord
  2
STANDARD
 70
     0
 40
0.0
 41
1.0
 50
0.0
 71
     0
 42
0.2
  3
txt
  4
bigfont.shx
  0
STYLE
  5
26
100
AcDbSymbolTableRecord
100
AcDbTextStyleTableRecord
  2
TATEGAKI
 70
    68
 40
0.0
 41
1.0
 50
0.0
 71
     0
 42
1.0
  3
txt
  4
bigfont.shx
  0
ENDTAB
  0
TABLE
  2
LAYER
 70
    7
  0
LAYER
  2
_0-0_
 70
   64
 62
    7
  6
CONTINUOUS
  0
LAYER
  2
_0-1_
 70
   64
 62
    7
  6
CONTINUOUS
  0
LAYER
  2
_0-2_
 70
   64
 62
    7
  6
CONTINUOUS
  0
LAYER
  2
_0-3_
 70
   64
 62
    7
  6
CONTINUOUS
  0
LAYER
  2
_0-4_
 70
   64
 62
    7
  6
CONTINUOUS
  0
LAYER
  2
_0-f_
 70
   64
 62
    7
  6
CONTINUOUS
  0
LAYER
  2
ADD_LINE
 70
   64
 62
    7
  6
CONTINUOUS
  0
ENDTAB
  0
ENDSEC
  0
SECTION
  2
BLOCKS
  0
ENDSEC
  0
SECTION
  2
ENTITIES
  0
LINE
  8
_0-0_
  6
CONTINUOUS
 62
    7
 10
-48.314212987099608
 20
525.37668099841528
 11
151.68578701290039
 21
525.37668099841528
  0
LINE
  8
_0-0_
  6
CONTINUOUS
 62
    7
 10
-48.314212987099608
 20
1325.3766809984153
 11
151.68578701290039
 21
1325.3766809984153
  0
LINE
  8
_0-0_
  6
CONTINUOUS
 62
    7
 10
151.68578701290039
 20
1325.3766809984153
 11
151.68578701290039
 21
1125.3766809984153
  0
LINE
  8
_0-0_
  6
CONTINUOUS
 62
    7
 10
151.68578701290039
 20
1125.3766809984153
 11
-48.314212987099608
 21
1125.3766809984153
  0
LINE
  8
_0-0_
  6
CONTINUOUS
 62
    7
 10
-48.314212987099608
 20
1125.3766809984153
 11
-48.314212987099608
 21
1325.3766809984153
  0
LINE
  8
_0-0_
  6
CONTINUOUS
 62
    7
 10
-48.314212987099608
 20
1125.3766809984153
 11
151.68578701290039
 21
1125.3766809984153
  0
LINE
  8
_0-0_
  6
CONTINUOUS
 62
    7
 10
151.68578701290039
 20
1125.3766809984153
 11
151.68578701290039
 21
925.37668099841528
  0
LINE
  8
_0-0_
  6
CONTINUOUS
 62
    7
 10
151.68578701290039
 20
925.37668099841528
 11
-48.314212987099608
 21
925.37668099841528
  0
LINE
  8
_0-0_
  6
CONTINUOUS
 62
    7
 10
-48.314212987099608
 20
925.37668099841528
 11
-48.314212987099608
 21
1125.3766809984153
  0
LINE
  8
_0-0_
  6
CONTINUOUS
 62
    7
 10
-48.314212987099608
 20
925.37668099841528
 11
151.68578701290039
 21
925.37668099841528
  0
LINE
  8
_0-0_
  6
CONTINUOUS
 62
    7
 10
151.68578701290039
 20
925.37668099841528
 11
151.68578701290039
 21
725.37668099841528
  0
LINE
  8
_0-0_
  6
CONTINUOUS
 62
    7
 10
151.68578701290039
 20
725.37668099841528
 11
-48.314212987099608
 21
725.37668099841528
  0
LINE
  8
_0-0_
  6
CONTINUOUS
 62
    7
 10
-48.314212987099608
 20
725.37668099841528
 11
151.68578701290039
 21
725.37668099841528
  0
LINE
  8
_0-0_
  6
CONTINUOUS
 62
    7
 10
151.68578701290039
 20
725.37668099841528
 11
151.68578701290039
 21
525.37668099841528
  0
TEXT
  8
_0-0_
 62
    7
 10
1319.6857870129003
 20
171.37668099841528
 40
10
 41
1
 50
0
  1
www.999shimano.com
  0
LINE
  8
_0-0_
  6
CONTINUOUS
 62
    7
 10
-78.314212987099608
 20
1355.3766809984153
 11
1601.6857870129003
 21
1355.3766809984153
  0
LINE
  8
_0-0_
  6
CONTINUOUS
 62
    7
 10
1601.6857870129003
 20
1355.3766809984153
 11
1601.6857870129003
 21
171.37668099841528
  0
LINE
  8
_0-0_
  6
CONTINUOUS
 62
    7
 10
1601.6857870129003
 20
171.37668099841528
 11
-78.314212987099608
 21
171.37668099841528
  0
LINE
  8
_0-0_
  6
CONTINUOUS
 62
    7
 10
-78.314212987099608
 20
171.37668099841528
 11
-78.314212987099608
 21
1355.3766809984153
  0
TEXT
  8
_0-0_
 62
    7
 10
-48.314212987099608
 20
171.37668099841528
 40
10
 41
1
 50
0
  1
A-3 S=1/4
  0
LINE
  8
_0-0_
  6
CONTINUOUS
 62
    7
 10
-48.314212987099608
 20
1325.3766809984153
 11
1571.6857870129003
 21
1325.3766809984153
  0
LINE
  8
_0-0_
  6
CONTINUOUS
 62
    7
 10
1571.6857870129003
 20
201.37668099841528
 11
1571.6857870129003
 21
1325.3766809984153
  0
LINE
  8
_0-0_
  6
CONTINUOUS
 62
    7
 10
-48.314212987099608
 20
201.37668099841528
 11
-48.314212987099608
 21
1325.3766809984153
  0
LINE
  8
_0-0_
  6
CONTINUOUS
 62
    7
 10
-48.314212987099608
 20
201.37668099841528
 11
1571.6857870129003
 21
201.37668099841528
  0
LINE
  8
_0-0_
  6
CONTINUOUS
 62
    7
 10
151.68578701290039
 20
1325.3766809984153
 11
351.68578701290039
 21
1325.3766809984153
  0
LINE
  8
_0-0_
  6
CONTINUOUS
 62
    7
 10
151.68578701290039
 20
1125.3766809984153
 11
151.68578701290039
 21
1325.3766809984153
  0
LINE
  8
_0-0_
  6
CONTINUOUS
 62
    7
 10
351.68578701290039
 20
1325.3766809984153
 11
551.68578701290039
 21
1325.3766809984153
  0
LINE
  8
_0-0_
  6
CONTINUOUS
 62
    7
 10
-48.314212987099608
 20
525.37668099841528
 11
-48.314212987099608
 21
725.37668099841528
  0
LINE
  8
_0-0_
  6
CONTINUOUS
 62
    7
 10
-48.314212987099608
 20
325.37668099841528
 11
-48.314212987099608
 21
525.37668099841528
  0
LINE
  8
_0-0_
  6
CONTINUOUS
 62
    7
 10
-48.314212987099608
 20
325.37668099841528
 11
-48.314212987099608
 21
525.37668099841528
  0
POINT
  8
_0-4_
 62
    7
 10
17.826325100790313
 20
575.37668099841528
  0
POINT
  8
_0-4_
 62
    7
 10
40.826325100790313
 20
575.37668099841528
  0
LINE
  8
_0-4_
  6
CONTINUOUS
 62
    7
 10
17.826325100790313
 20
575.37668099841528
 11
17.826325100790313
 21
595.37668099841528
  0
LINE
  8
_0-4_
  6
CONTINUOUS
 62
    7
 10
40.826325100790313
 20
575.37668099841528
 11
40.826325100790313
 21
595.37668099841528
  0
LINE
  8
_0-4_
  6
CONTINUOUS
 62
    7
 10
17.826325100790313
 20
575.37668099841528
 11
40.826325100790313
 21
575.37668099841528
  0
TEXT
  8
_0-4_
 62
    7
 10
11.826325100790313
 20
575.37668099841528
 40
16
 41
1
 50
0
  1
23.0
  0
POINT
  8
_0-4_
 62
    7
 10
17.826325100790313
 20
675.37668099841528
  0
POINT
  8
_0-4_
 62
    7
 10
7.8263251007903136
 20
675.37668099841528
  0
LINE
  8
_0-4_
  6
CONTINUOUS
 62
    7
 10
17.826325100790313
 20
675.37668099841528
 11
17.826325100790313
 21
655.37668099841528
  0
LINE
  8
_0-4_
  6
CONTINUOUS
 62
    7
 10
7.8263251007903136
 20
675.37668099841528
 11
7.8263251007903136
 21
655.37668099841528
  0
POINT
  8
_0-4_
 62
    7
 10
40.826325100790313
 20
675.37668099841528
  0
POINT
  8
_0-4_
 62
    7
 10
49.626325100790381
 20
675.37668099841528
  0
LINE
  8
_0-4_
  6
CONTINUOUS
 62
    7
 10
40.826325100790313
 20
675.37668099841528
 11
40.826325100790313
 21
655.37668099841528
  0
LINE
  8
_0-4_
  6
CONTINUOUS
 62
    7
 10
49.626325100790381
 20
675.37668099841528
 11
49.626325100790381
 21
655.37668099841528
  0
LINE
  8
_0-4_
  6
CONTINUOUS
 62
    7
 10
40.826325100790313
 20
675.37668099841528
 11
49.626325100790381
 21
675.37668099841528
  0
TEXT
  8
_0-4_
 62
    7
 10
32.22632510079029
 20
675.37668099841528
 40
16
 41
1
 50
0
  1
8.8
  0
LINE
  8
_0-4_
  6
CONTINUOUS
 62
    7
 10
17.826325100790313
 20
675.37668099841528
 11
7.8263251007903136
 21
675.37668099841528
  0
TEXT
  8
_0-4_
 62
    7
 10
-15.814212987099608
 20
675.37668099841528
 40
16
 41
1
 50
0
  1
10.0
  0
POINT
  8
_0-4_
 62
    7
 10
84.739152684992063
 20
575.37668099841528
  0
POINT
  8
_0-4_
 62
    7
 10
102.91349751658856
 20
575.37668099841528
  0
LINE
  8
_0-4_
  6
CONTINUOUS
 62
    7
 10
84.739152684992063
 20
575.37668099841528
 11
84.739152684992063
 21
595.37668099841528
  0
LINE
  8
_0-4_
  6
CONTINUOUS
 62
    7
 10
102.91349751658856
 20
575.37668099841528
 11
102.91349751658856
 21
595.37668099841528
  0
LINE
  8
_0-4_
  6
CONTINUOUS
 62
    7
 10
84.739152684992063
 20
575.37668099841528
 11
102.91349751658856
 21
575.37668099841528
  0
TEXT
  8
_0-4_
 62
    7
 10
76.326325100790313
 20
575.37668099841528
 40
16
 41
1
 50
0
  1
18.2
  0
TEXT
  8
_0-0_
 62
    7
 10
-48.314212987099608
 20
525.37668099841528
 40
10
 41
1
 50
0
  1
999-76873
  0
LINE
  8
_0-1_
  6
CONTINUOUS
 62
    7
 10
51.685787012900391
 20
1019.5766809984153
 11
53.685787012900391
 21
1019.5766809984153
  0
LINE
  8
_0-1_
  6
CONTINUOUS
 62
    7
 10
53.685787012900391
 20
1019.5766809984153
 11
53.685787012900391
 21
1021.5766809984153
  0
LINE
  8
_0-1_
  6
CONTINUOUS
 62
    7
 10
53.685787012900391
 20
1021.5766809984153
 11
56.485787012900573
 21
1021.5766809984153
  0
LINE
  8
_0-1_
  6
CONTINUOUS
 62
    7
 10
56.485787012900573
 20
1021.5766809984153
 11
56.485787012900573
 21
1026.5766809984152
  0
LINE
  8
_0-1_
  6
CONTINUOUS
 62
    7
 10
56.485787012900573
 20
1026.5766809984152
 11
58.485787012900573
 21
1026.5766809984152
  0
LINE
  8
_0-1_
  6
CONTINUOUS
 62
    7
 10
58.485787012900573
 20
1026.5766809984152
 11
58.485787012900573
 21
1021.5766809984153
  0
LINE
  8
_0-1_
  6
CONTINUOUS
 62
    7
 10
58.485787012900573
 20
1021.5766809984153
 11
61.2857870129003
 21
1021.5766809984153
  0
LINE
  8
_0-1_
  6
CONTINUOUS
 62
    7
 10
61.2857870129003
 20
1021.5766809984153
 11
61.2857870129003
 21
1019.5766809984153
  0
LINE
  8
_0-1_
  6
CONTINUOUS
 62
    7
 10
61.2857870129003
 20
1019.5766809984153
 11
65.2857870129003
 21
1019.5766809984153
  0
LINE
  8
_0-1_
  6
CONTINUOUS
 62
    7
 10
65.2857870129003
 20
1019.5766809984153
 11
65.2857870129003
 21
1021.5766809984153
  0
LINE
  8
_0-1_
  6
CONTINUOUS
 62
    7
 10
65.2857870129003
 20
1021.5766809984153
 11
68.085787012900482
 21
1021.5766809984153
  0
LINE
  8
_0-1_
  6
CONTINUOUS
 62
    7
 10
68.085787012900482
 20
1021.5766809984153
 11
68.085787012900482
 21
1025.3766809984153
  0
LINE
  8
_0-1_
  6
CONTINUOUS
 62
    7
 10
68.085787012900482
 20
1025.3766809984153
 11
68.085787012900482
 21
1026.5766809984152
  0
LINE
  8
_0-1_
  6
CONTINUOUS
 62
    7
 10
68.085787012900482
 20
1026.5766809984152
 11
69.2857870129003
 21
1026.5766809984152
  0
LINE
  8
_0-1_
  6
CONTINUOUS
 62
    7
 10
69.2857870129003
 20
1026.5766809984152
 11
70.085787012900482
 21
1026.5766809984152
  0
ARC
  8
_0-1_
  6
CONTINUOUS
 62
    7
 10
70.085787759975801
 20
1025.5766817454903
 40
0.9999992529250956
 50
359.99995719571302
 51
90.000042804286977
  0
LINE
  8
_0-1_
  6
CONTINUOUS
 62
    7
 10
71.085787012900482
 20
1025.5766809984152
 11
71.085787012900482
 21
1025.3766809984153
  0
LINE
  8
_0-1_
  6
CONTINUOUS
 62
    7
 10
71.085787012900482
 20
1025.3766809984153
 11
69.2857870129003
 21
1025.3766809984153
  0
LINE
  8
_0-1_
  6
CONTINUOUS
 62
    7
 10
69.2857870129003
 20
1025.3766809984153
 11
69.2857870129003
 21
1019.5766809984153
  0
LINE
  8
_0-1_
  6
CONTINUOUS
 62
    7
 10
69.2857870129003
 20
1019.5766809984153
 11
69.2857870129003
 21
1018.0766809984153
  0
LINE
  8
_0-1_
  6
CONTINUOUS
 62
    7
 10
69.2857870129003
 20
1018.0766809984153
 11
68.085787012900482
 21
1018.0766809984153
  0
LINE
  8
_0-1_
  6
CONTINUOUS
 62
    7
 10
68.085787012900482
 20
1018.0766809984153
 11
68.085787012900482
 21
1020.3766809984152
  0
LINE
  8
_0-1_
  6
CONTINUOUS
 62
    7
 10
68.085787012900482
 20
1020.3766809984152
 11
66.585787012900482
 21
1020.3766809984152
  0
LINE
  8
_0-1_
  6
CONTINUOUS
 62
    7
 10
66.585787012900482
 20
1020.3766809984152
 11
66.485787012900573
 21
1020.3766809984152
  0
LINE
  8
_0-1_
  6
CONTINUOUS
 62
    7
 10
66.485787012900573
 20
1020.3766809984152
 11
66.485787012900573
 21
1018.0766809984153
  0
LINE
  8
_0-1_
  6
CONTINUOUS
 62
    7
 10
66.485787012900573
 20
1018.0766809984153
 11
60.085787012900368
 21
1018.0766809984153
  0
LINE
  8
_0-1_
  6
CONTINUOUS
 62
    7
 10
60.085787012900368
 20
1018.0766809984153
 11
60.085787012900368
 21
1020.3766809984152
  0
LINE
  8
_0-1_
  6
CONTINUOUS
 62
    7
 10
60.085787012900368
 20
1020.3766809984152
 11
54.885787012900209
 21
1020.3766809984152
  0
LINE
  8
_0-1_
  6
CONTINUOUS
 62
    7
 10
54.885787012900209
 20
1020.3766809984152
 11
54.885787012900209
 21
1018.0766809984153
  0
LINE
  8
_0-1_
  6
CONTINUOUS
 62
    7
 10
54.885787012900209
 20
1018.0766809984153
 11
51.685787012900391
 21
1018.0766809984153
  0
LINE
  8
_0-1_
  6
CONTINUOUS
 62
    7
 10
51.685787012900391
 20
1018.0766809984153
 11
48.485787012900573
 21
1018.0766809984153
  0
LINE
  8
_0-1_
  6
CONTINUOUS
 62
    7
 10
48.485787012900573
 20
1018.0766809984153
 11
48.485787012900573
 21
1020.3766809984152
  0
LINE
  8
_0-1_
  6
CONTINUOUS
 62
    7
 10
48.485787012900573
 20
1020.3766809984152
 11
43.2857870129003
 21
1020.3766809984152
  0
LINE
  8
_0-1_
  6
CONTINUOUS
 62
    7
 10
43.2857870129003
 20
1020.3766809984152
 11
43.2857870129003
 21
1018.0766809984153
  0
LINE
  8
_0-1_
  6
CONTINUOUS
 62
    7
 10
43.2857870129003
 20
1018.0766809984153
 11
36.885787012900209
 21
1018.0766809984153
  0
LINE
  8
_0-1_
  6
CONTINUOUS
 62
    7
 10
36.885787012900209
 20
1018.0766809984153
 11
36.885787012900209
 21
1020.3766809984152
  0
LINE
  8
_0-1_
  6
CONTINUOUS
 62
    7
 10
36.885787012900209
 20
1020.3766809984152
 11
36.7857870129003
 21
1020.3766809984152
  0
LINE
  8
_0-1_
  6
CONTINUOUS
 62
    7
 10
36.7857870129003
 20
1020.3766809984152
 11
35.2857870129003
 21
1020.3766809984152
  0
LINE
  8
_0-1_
  6
CONTINUOUS
 62
    7
 10
35.2857870129003
 20
1020.3766809984152
 11
35.2857870129003
 21
1018.0766809984153
  0
LINE
  8
_0-1_
  6
CONTINUOUS
 62
    7
 10
35.2857870129003
 20
1018.0766809984153
 11
34.085787012900368
 21
1018.0766809984153
  0
LINE
  8
_0-1_
  6
CONTINUOUS
 62
    7
 10
34.085787012900368
 20
1018.0766809984153
 11
34.085787012900368
 21
1019.5766809984153
  0
LINE
  8
_0-1_
  6
CONTINUOUS
 62
    7
 10
34.085787012900368
 20
1019.5766809984153
 11
34.085787012900368
 21
1025.3766809984153
  0
LINE
  8
_0-1_
  6
CONTINUOUS
 62
    7
 10
34.085787012900368
 20
1025.3766809984153
 11
32.2857870129003
 21
1025.3766809984153
  0
LINE
  8
_0-1_
  6
CONTINUOUS
 62
    7
 10
32.2857870129003
 20
1025.3766809984153
 11
32.2857870129003
 21
1025.5766809984152
  0
ARC
  8
_0-1_
  6
CONTINUOUS
 62
    7
 10
33.285786265825436
 20
1025.5766817454903
 40
0.9999992529250956
 50
89.999957195713022
 51
180.00004280428686
  0
LINE
  8
_0-1_
  6
CONTINUOUS
 62
    7
 10
33.2857870129003
 20
1026.5766809984152
 11
34.085787012900368
 21
1026.5766809984152
  0
LINE
  8
_0-1_
  6
CONTINUOUS
 62
    7
 10
34.085787012900368
 20
1026.5766809984152
 11
35.2857870129003
 21
1026.5766809984152
  0
LINE
  8
_0-1_
  6
CONTINUOUS
 62
    7
 10
35.2857870129003
 20
1026.5766809984152
 11
35.2857870129003
 21
1025.3766809984153
  0
LINE
  8
_0-1_
  6
CONTINUOUS
 62
    7
 10
35.2857870129003
 20
1025.3766809984153
 11
35.2857870129003
 21
1021.5766809984153
  0
LINE
  8
_0-1_
  6
CONTINUOUS
 62
    7
 10
35.2857870129003
 20
1021.5766809984153
 11
38.085787012900482
 21
1021.5766809984153
  0
LINE
  8
_0-1_
  6
CONTINUOUS
 62
    7
 10
38.085787012900482
 20
1021.5766809984153
 11
38.085787012900482
 21
1019.5766809984153
  0
LINE
  8
_0-1_
  6
CONTINUOUS
 62
    7
 10
38.085787012900482
 20
1019.5766809984153
 11
42.085787012900482
 21
1019.5766809984153
  0
LINE
  8
_0-1_
  6
CONTINUOUS
 62
    7
 10
42.085787012900482
 20
1019.5766809984153
 11
42.085787012900482
 21
1021.5766809984153
  0
LINE
  8
_0-1_
  6
CONTINUOUS
 62
    7
 10
42.085787012900482
 20
1021.5766809984153
 11
44.885787012900209
 21
1021.5766809984153
  0
LINE
  8
_0-1_
  6
CONTINUOUS
 62
    7
 10
44.885787012900209
 20
1021.5766809984153
 11
44.885787012900209
 21
1026.5766809984152
  0
LINE
  8
_0-1_
  6
CONTINUOUS
 62
    7
 10
44.885787012900209
 20
1026.5766809984152
 11
46.885787012900209
 21
1026.5766809984152
  0
LINE
  8
_0-1_
  6
CONTINUOUS
 62
    7
 10
46.885787012900209
 20
1026.5766809984152
 11
46.885787012900209
 21
1021.5766809984153
  0
LINE
  8
_0-1_
  6
CONTINUOUS
 62
    7
 10
46.885787012900209
 20
1021.5766809984153
 11
49.685787012900391
 21
1021.5766809984153
  0
LINE
  8
_0-1_
  6
CONTINUOUS
 62
    7
 10
49.685787012900391
 20
1021.5766809984153
 11
49.685787012900391
 21
1019.5766809984153
  0
LINE
  8
_0-1_
  6
CONTINUOUS
 62
    7
 10
49.685787012900391
 20
1019.5766809984153
 11
51.685787012900391
 21
1019.5766809984153
  0
POINT
  8
_0-4_
 62
    7
 10
101.68578701290039
 20
1025.3766809984153
  0
POINT
  8
_0-4_
 62
    7
 10
101.68578701290039
 20
1018.0766809984153
  0
LINE
  8
_0-4_
  6
CONTINUOUS
 62
    7
 10
101.68578701290039
 20
1025.3766809984153
 11
81.685787012900391
 21
1025.3766809984153
  0
LINE
  8
_0-4_
  6
CONTINUOUS
 62
    7
 10
101.68578701290039
 20
1018.0766809984153
 11
81.685787012900391
 21
1018.0766809984153
  0
LINE
  8
_0-4_
  6
CONTINUOUS
 62
    7
 10
101.68578701290039
 20
1025.3766809984153
 11
101.68578701290039
 21
1018.0766809984153
  0
TEXT
  8
_0-4_
 62
    7
 10
101.68578701290039
 20
1008.7266809984151
 40
16
 41
1
 50
90
  1
7.3
  0
POINT
  8
_0-4_
 62
    7
 10
69.2857870129003
 20
975.37668099841528
  0
POINT
  8
_0-4_
 62
    7
 10
34.085787012900368
 20
975.37668099841528
  0
LINE
  8
_0-4_
  6
CONTINUOUS
 62
    7
 10
69.2857870129003
 20
975.37668099841528
 11
69.2857870129003
 21
995.37668099841528
  0
LINE
  8
_0-4_
  6
CONTINUOUS
 62
    7
 10
34.085787012900368
 20
975.37668099841528
 11
34.085787012900368
 21
995.37668099841528
  0
LINE
  8
_0-4_
  6
CONTINUOUS
 62
    7
 10
69.2857870129003
 20
975.37668099841528
 11
34.085787012900368
 21
975.37668099841528
  0
TEXT
  8
_0-4_
 62
    7
 10
34.185787012900391
 20
975.37668099841528
 40
16
 41
1
 50
0
  1
35.2
  0
POINT
  8
_0-4_
 62
    7
 10
32.2857870129003
 20
1075.3766809984153
  0
POINT
  8
_0-4_
 62
    7
 10
71.085787012900482
 20
1075.3766809984153
  0
LINE
  8
_0-4_
  6
CONTINUOUS
 62
    7
 10
32.2857870129003
 20
1075.3766809984153
 11
32.2857870129003
 21
1055.3766809984153
  0
LINE
  8
_0-4_
  6
CONTINUOUS
 62
    7
 10
71.085787012900482
 20
1075.3766809984153
 11
71.085787012900482
 21
1055.3766809984153
  0
LINE
  8
_0-4_
  6
CONTINUOUS
 62
    7
 10
32.2857870129003
 20
1075.3766809984153
 11
71.085787012900482
 21
1075.3766809984153
  0
TEXT
  8
_0-4_
 62
    7
 10
34.185787012900391
 20
1075.3766809984153
 40
16
 41
1
 50
0
  1
38.8
  0
LINE
  8
_0-1_
  6
CONTINUOUS
 62
    7
 10
67.2857870129003
 20
1238.9766809984153
 11
57.685787012900391
 21
1238.9766809984153
  0
LINE
  8
_0-1_
  6
CONTINUOUS
 62
    7
 10
57.685787012900391
 20
1238.9766809984153
 11
57.685787012900391
 21
1225.3766809984153
  0
LINE
  8
_0-1_
  6
CONTINUOUS
 62
    7
 10
57.685787012900391
 20
1225.3766809984153
 11
58.085787012900368
 21
1224.1766809984151
  0
LINE
  8
_0-1_
  6
CONTINUOUS
 62
    7
 10
58.085787012900368
 20
1224.1766809984151
 11
57.685787012900391
 21
1224.1766809984151
  0
LINE
  8
_0-1_
  6
CONTINUOUS
 62
    7
 10
57.685787012900391
 20
1224.1766809984151
 11
56.485787012900573
 21
1224.1766809984151
  0
LINE
  8
_0-1_
  6
CONTINUOUS
 62
    7
 10
56.485787012900573
 20
1224.1766809984151
 11
56.085787012900368
 21
1224.1766809984151
  0
LINE
  8
_0-1_
  6
CONTINUOUS
 62
    7
 10
56.085787012900368
 20
1224.1766809984151
 11
56.485787012900573
 21
1225.3766809984153
  0
LINE
  8
_0-1_
  6
CONTINUOUS
 62
    7
 10
56.485787012900573
 20
1225.3766809984153
 11
56.485787012900573
 21
1238.9766809984153
  0
LINE
  8
_0-1_
  6
CONTINUOUS
 62
    7
 10
56.485787012900573
 20
1238.9766809984153
 11
51.685787012900391
 21
1238.9766809984153
  0
LINE
  8
_0-1_
  6
CONTINUOUS
 62
    7
 10
51.685787012900391
 20
1238.9766809984153
 11
46.885787012900209
 21
1238.9766809984153
  0
LINE
  8
_0-1_
  6
CONTINUOUS
 62
    7
 10
46.885787012900209
 20
1238.9766809984153
 11
46.885787012900209
 21
1225.3766809984153
  0
LINE
  8
_0-1_
  6
CONTINUOUS
 62
    7
 10
46.885787012900209
 20
1225.3766809984153
 11
47.2857870129003
 21
1224.1766809984151
  0
LINE
  8
_0-1_
  6
CONTINUOUS
 62
    7
 10
47.2857870129003
 20
1224.1766809984151
 11
46.885787012900209
 21
1224.1766809984151
  0
LINE
  8
_0-1_
  6
CONTINUOUS
 62
    7
 10
46.885787012900209
 20
1224.1766809984151
 11
45.685787012900391
 21
1224.1766809984151
  0
LINE
  8
_0-1_
  6
CONTINUOUS
 62
    7
 10
45.685787012900391
 20
1224.1766809984151
 11
45.2857870129003
 21
1224.1766809984151
  0
LINE
  8
_0-1_
  6
CONTINUOUS
 62
    7
 10
45.2857870129003
 20
1224.1766809984151
 11
45.685787012900391
 21
1225.3766809984153
  0
LINE
  8
_0-1_
  6
CONTINUOUS
 62
    7
 10
45.685787012900391
 20
1225.3766809984153
 11
45.685787012900391
 21
1238.9766809984153
  0
LINE
  8
_0-1_
  6
CONTINUOUS
 62
    7
 10
45.685787012900391
 20
1238.9766809984153
 11
36.085787012900482
 21
1238.9766809984153
  0
LINE
  8
_0-1_
  6
CONTINUOUS
 62
    7
 10
36.085787012900482
 20
1238.9766809984153
 11
36.085787012900482
 21
1225.3766809984153
  0
LINE
  8
_0-1_
  6
CONTINUOUS
 62
    7
 10
36.085787012900482
 20
1225.3766809984153
 11
36.085787012900482
 21
1224.1766809984151
  0
LINE
  8
_0-1_
  6
CONTINUOUS
 62
    7
 10
36.085787012900482
 20
1224.1766809984151
 11
34.885787012900209
 21
1224.1766809984151
  0
LINE
  8
_0-1_
  6
CONTINUOUS
 62
    7
 10
34.885787012900209
 20
1224.1766809984151
 11
33.085787012900368
 21
1224.1766809984151
  0
LINE
  8
_0-1_
  6
CONTINUOUS
 62
    7
 10
33.085787012900368
 20
1224.1766809984151
 11
33.085787012900368
 21
1225.3766809984153
  0
LINE
  8
_0-1_
  6
CONTINUOUS
 62
    7
 10
33.085787012900368
 20
1225.3766809984153
 11
34.885787012900209
 21
1225.3766809984153
  0
LINE
  8
_0-1_
  6
CONTINUOUS
 62
    7
 10
34.885787012900209
 20
1225.3766809984153
 11
34.885787012900209
 21
1238.9766809984153
  0
LINE
  8
_0-1_
  6
CONTINUOUS
 62
    7
 10
34.885787012900209
 20
1238.9766809984153
 11
34.885787012900209
 21
1240.1766809984151
  0
LINE
  8
_0-1_
  6
CONTINUOUS
 62
    7
 10
34.885787012900209
 20
1240.1766809984151
 11
36.085787012900482
 21
1240.1766809984151
  0
LINE
  8
_0-1_
  6
CONTINUOUS
 62
    7
 10
36.085787012900482
 20
1240.1766809984151
 11
45.685787012900391
 21
1240.1766809984151
  0
LINE
  8
_0-1_
  6
CONTINUOUS
 62
    7
 10
45.685787012900391
 20
1240.1766809984151
 11
46.885787012900209
 21
1240.1766809984151
  0
LINE
  8
_0-1_
  6
CONTINUOUS
 62
    7
 10
46.885787012900209
 20
1240.1766809984151
 11
51.685787012900391
 21
1240.1766809984151
  0
LINE
  8
_0-1_
  6
CONTINUOUS
 62
    7
 10
51.685787012900391
 20
1240.1766809984151
 11
56.485787012900573
 21
1240.1766809984151
  0
LINE
  8
_0-1_
  6
CONTINUOUS
 62
    7
 10
56.485787012900573
 20
1240.1766809984151
 11
57.685787012900391
 21
1240.1766809984151
  0
LINE
  8
_0-1_
  6
CONTINUOUS
 62
    7
 10
57.685787012900391
 20
1240.1766809984151
 11
67.2857870129003
 21
1240.1766809984151
  0
LINE
  8
_0-1_
  6
CONTINUOUS
 62
    7
 10
67.2857870129003
 20
1240.1766809984151
 11
68.485787012900459
 21
1240.1766809984151
  0
LINE
  8
_0-1_
  6
CONTINUOUS
 62
    7
 10
68.485787012900459
 20
1240.1766809984151
 11
68.485787012900459
 21
1238.9766809984153
  0
LINE
  8
_0-1_
  6
CONTINUOUS
 62
    7
 10
68.485787012900459
 20
1238.9766809984153
 11
68.485787012900459
 21
1225.3766809984153
  0
LINE
  8
_0-1_
  6
CONTINUOUS
 62
    7
 10
68.485787012900459
 20
1225.3766809984153
 11
70.2857870129003
 21
1225.3766809984153
  0
LINE
  8
_0-1_
  6
CONTINUOUS
 62
    7
 10
70.2857870129003
 20
1225.3766809984153
 11
70.2857870129003
 21
1224.1766809984151
  0
LINE
  8
_0-1_
  6
CONTINUOUS
 62
    7
 10
70.2857870129003
 20
1224.1766809984151
 11
68.485787012900459
 21
1224.1766809984151
  0
LINE
  8
_0-1_
  6
CONTINUOUS
 62
    7
 10
68.485787012900459
 20
1224.1766809984151
 11
67.2857870129003
 21
1224.1766809984151
  0
LINE
  8
_0-1_
  6
CONTINUOUS
 62
    7
 10
67.2857870129003
 20
1224.1766809984151
 11
67.2857870129003
 21
1225.3766809984153
  0
LINE
  8
_0-1_
  6
CONTINUOUS
 62
    7
 10
67.2857870129003
 20
1225.3766809984153
 11
67.2857870129003
 21
1238.9766809984153
  0
POINT
  8
_0-4_
 62
    7
 10
101.68578701290039
 20
1240.1766809984151
  0
POINT
  8
_0-4_
 62
    7
 10
101.68578701290039
 20
1225.3766809984153
  0
LINE
  8
_0-4_
  6
CONTINUOUS
 62
    7
 10
101.68578701290039
 20
1240.1766809984151
 11
81.685787012900391
 21
1240.1766809984151
  0
LINE
  8
_0-4_
  6
CONTINUOUS
 62
    7
 10
101.68578701290039
 20
1225.3766809984153
 11
81.685787012900391
 21
1225.3766809984153
  0
LINE
  8
_0-4_
  6
CONTINUOUS
 62
    7
 10
101.68578701290039
 20
1240.1766809984151
 11
101.68578701290039
 21
1225.3766809984153
  0
TEXT
  8
_0-4_
 62
    7
 10
101.68578701290039
 20
1215.2766809984154
 40
16
 41
1
 50
90
  1
14.8
  0
POINT
  8
_0-4_
 62
    7
 10
70.2857870129003
 20
1175.3766809984153
  0
POINT
  8
_0-4_
 62
    7
 10
33.085787012900368
 20
1175.3766809984153
  0
LINE
  8
_0-4_
  6
CONTINUOUS
 62
    7
 10
70.2857870129003
 20
1175.3766809984153
 11
70.2857870129003
 21
1195.3766809984153
  0
LINE
  8
_0-4_
  6
CONTINUOUS
 62
    7
 10
33.085787012900368
 20
1175.3766809984153
 11
33.085787012900368
 21
1195.3766809984153
  0
LINE
  8
_0-4_
  6
CONTINUOUS
 62
    7
 10
70.2857870129003
 20
1175.3766809984153
 11
33.085787012900368
 21
1175.3766809984153
  0
TEXT
  8
_0-4_
 62
    7
 10
34.185787012900391
 20
1175.3766809984153
 40
16
 41
1
 50
0
  1
37.2
  0
POINT
  8
_0-4_
 62
    7
 10
34.885787012900209
 20
1275.3766809984153
  0
POINT
  8
_0-4_
 62
    7
 10
68.485787012900459
 20
1275.3766809984153
  0
LINE
  8
_0-4_
  6
CONTINUOUS
 62
    7
 10
34.885787012900209
 20
1275.3766809984153
 11
34.885787012900209
 21
1255.3766809984153
  0
LINE
  8
_0-4_
  6
CONTINUOUS
 62
    7
 10
68.485787012900459
 20
1275.3766809984153
 11
68.485787012900459
 21
1255.3766809984153
  0
LINE
  8
_0-4_
  6
CONTINUOUS
 62
    7
 10
34.885787012900209
 20
1275.3766809984153
 11
68.485787012900459
 21
1275.3766809984153
  0
TEXT
  8
_0-4_
 62
    7
 10
34.185787012900391
 20
1275.3766809984153
 40
16
 41
1
 50
0
  1
33.6
  0
LINE
  8
_0-1_
  6
CONTINUOUS
 62
    7
 10
54.735787012900345
 20
848.87668099841516
 11
54.735787012900345
 21
828.87668099841516
  0
LINE
  8
_0-1_
  6
CONTINUOUS
 62
    7
 10
48.635787012900436
 20
848.87668099841516
 11
48.635787012900436
 21
828.87668099841516
  0
ARC
  8
_0-1_
  6
CONTINUOUS
 62
    7
 10
46.970012710883793
 20
831.82478426436296
 40
8.9802861129515392
 50
344.3978382806477
 51
356.74229428108969
  0
ARC
  8
_0-1_
  6
CONTINUOUS
 62
    7
 10
55.023178960700079
 20
829.47667330863089
 40
0.5999923102187105
 50
269.99981399644269
 51
353.57003653217111
  0
LINE
  8
_0-1_
  6
CONTINUOUS
 62
    7
 10
55.023177012900305
 20
828.87668099841516
 11
55.01906701290045
 21
828.87668099841516
  0
LINE
  8
_0-1_
  6
CONTINUOUS
 62
    7
 10
55.01906701290045
 20
828.87668099841516
 11
54.735787012900345
 21
828.87668099841516
  0
LINE
  8
_0-1_
  6
CONTINUOUS
 62
    7
 10
54.735787012900345
 20
828.87668099841516
 11
54.735787012900345
 21
828.94998099841529
  0
LINE
  8
_0-1_
  6
CONTINUOUS
 62
    7
 10
54.735787012900345
 20
828.94998099841529
 11
54.735787012900345
 21
830.00337099841533
  0
LINE
  8
_0-1_
  6
CONTINUOUS
 62
    7
 10
54.735787012900345
 20
830.00337099841533
 11
54.735787012900345
 21
831.82668099841544
  0
LINE
  8
_0-1_
  6
CONTINUOUS
 62
    7
 10
54.735787012900345
 20
831.82668099841544
 11
54.735787012900345
 21
844.87668099841516
  0
LINE
  8
_0-1_
  6
CONTINUOUS
 62
    7
 10
54.735787012900345
 20
844.87668099841516
 11
54.735787012900345
 21
845.27668099841525
  0
LINE
  8
_0-1_
  6
CONTINUOUS
 62
    7
 10
54.735787012900345
 20
845.27668099841525
 11
53.810787012900391
 21
844.87668099841516
  0
LINE
  8
_0-1_
  6
CONTINUOUS
 62
    7
 10
53.810787012900391
 20
844.87668099841516
 11
51.685787012900391
 21
844.87668099841516
  0
LINE
  8
_0-1_
  6
CONTINUOUS
 62
    7
 10
51.685787012900391
 20
844.87668099841516
 11
49.560787012900391
 21
844.87668099841516
  0
LINE
  8
_0-1_
  6
CONTINUOUS
 62
    7
 10
49.560787012900391
 20
844.87668099841516
 11
48.635787012900436
 21
845.27668099841525
  0
LINE
  8
_0-1_
  6
CONTINUOUS
 62
    7
 10
48.635787012900436
 20
845.27668099841525
 11
48.635787012900436
 21
844.87668099841516
  0
LINE
  8
_0-1_
  6
CONTINUOUS
 62
    7
 10
48.635787012900436
 20
844.87668099841516
 11
48.635787012900436
 21
831.82668099841544
  0
LINE
  8
_0-1_
  6
CONTINUOUS
 62
    7
 10
48.635787012900436
 20
831.82668099841544
 11
48.635787012900436
 21
830.00337099841533
  0
LINE
  8
_0-1_
  6
CONTINUOUS
 62
    7
 10
48.635787012900436
 20
830.00337099841533
 11
48.635787012900436
 21
828.94998099841529
  0
LINE
  8
_0-1_
  6
CONTINUOUS
 62
    7
 10
48.635787012900436
 20
828.94998099841529
 11
48.635787012900436
 21
828.87668099841516
  0
LINE
  8
_0-1_
  6
CONTINUOUS
 62
    7
 10
48.635787012900436
 20
828.87668099841516
 11
48.352507012900332
 21
828.87668099841516
  0
LINE
  8
_0-1_
  6
CONTINUOUS
 62
    7
 10
48.352507012900332
 20
828.87668099841516
 11
48.348397012900363
 21
828.87668099841516
  0
ARC
  8
_0-1_
  6
CONTINUOUS
 62
    7
 10
48.348389828299104
 20
829.47666744848493
 40
0.5999864501125412
 50
186.42946337700999
 51
270.0006860943763
  0
ARC
  8
_0-1_
  6
CONTINUOUS
 62
    7
 10
56.401725630907776
 20
831.82481155490495
 40
8.9804517142728261
 50
183.25781997834309
 51
195.60204745991961
  0
LINE
  8
_0-1_
  6
CONTINUOUS
 62
    7
 10
47.435787012900391
 20
831.31446099841514
 11
47.435787012900391
 21
831.82668099841544
  0
LINE
  8
_0-1_
  6
CONTINUOUS
 62
    7
 10
47.435787012900391
 20
831.82668099841544
 11
47.435787012900391
 21
833.87668099841528
  0
LINE
  8
_0-1_
  6
CONTINUOUS
 62
    7
 10
47.435787012900391
 20
833.87668099841528
 11
47.435787012900391
 21
844.87668099841516
  0
LINE
  8
_0-1_
  6
CONTINUOUS
 62
    7
 10
47.435787012900391
 20
844.87668099841516
 11
47.435787012900391
 21
846.87668099841528
  0
LINE
  8
_0-1_
  6
CONTINUOUS
 62
    7
 10
47.435787012900391
 20
846.87668099841528
 11
47.435787012900391
 21
848.87668099841516
  0
LINE
  8
_0-1_
  6
CONTINUOUS
 62
    7
 10
47.435787012900391
 20
848.87668099841516
 11
47.435787012900391
 21
850.87668099841528
  0
LINE
  8
_0-1_
  6
CONTINUOUS
 62
    7
 10
47.435787012900391
 20
850.87668099841528
 11
47.435787012900391
 21
852.87668099841516
  0
LINE
  8
_0-1_
  6
CONTINUOUS
 62
    7
 10
47.435787012900391
 20
852.87668099841516
 11
47.435787012900391
 21
863.87668099841528
  0
LINE
  8
_0-1_
  6
CONTINUOUS
 62
    7
 10
47.435787012900391
 20
863.87668099841528
 11
47.435787012900391
 21
865.92668099841523
  0
LINE
  8
_0-1_
  6
CONTINUOUS
 62
    7
 10
47.435787012900391
 20
865.92668099841523
 11
47.435787012900391
 21
866.4389009984153
  0
ARC
  8
_0-1_
  6
CONTINUOUS
 62
    7
 10
56.401561314916989
 20
865.92857773246771
 40
8.9802861129515232
 50
164.39783828064759
 51
176.74229428108961
  0
ARC
  8
_0-1_
  6
CONTINUOUS
 62
    7
 10
48.348395065100703
 20
868.27668868819966
 40
0.5999923102187105
 50
89.999813996442711
 51
173.57003653217108
  0
LINE
  8
_0-1_
  6
CONTINUOUS
 62
    7
 10
48.348397012900363
 20
868.87668099841528
 11
48.352507012900332
 21
868.87668099841528
  0
LINE
  8
_0-1_
  6
CONTINUOUS
 62
    7
 10
48.352507012900332
 20
868.87668099841528
 11
48.635787012900436
 21
868.87668099841528
  0
LINE
  8
_0-1_
  6
CONTINUOUS
 62
    7
 10
48.635787012900436
 20
868.87668099841528
 11
48.635787012900436
 21
868.80338099841515
  0
LINE
  8
_0-1_
  6
CONTINUOUS
 62
    7
 10
48.635787012900436
 20
868.80338099841515
 11
48.635787012900436
 21
867.74999099841522
  0
LINE
  8
_0-1_
  6
CONTINUOUS
 62
    7
 10
48.635787012900436
 20
867.74999099841522
 11
48.635787012900436
 21
865.92668099841523
  0
LINE
  8
_0-1_
  6
CONTINUOUS
 62
    7
 10
48.635787012900436
 20
865.92668099841523
 11
48.635787012900436
 21
852.87668099841516
  0
LINE
  8
_0-1_
  6
CONTINUOUS
 62
    7
 10
48.635787012900436
 20
852.87668099841516
 11
48.635787012900436
 21
850.87668099841528
  0
LINE
  8
_0-1_
  6
CONTINUOUS
 62
    7
 10
48.635787012900436
 20
850.87668099841528
 11
48.635787012900436
 21
848.87668099841516
  0
LINE
  8
_0-1_
  6
CONTINUOUS
 62
    7
 10
48.635787012900436
 20
848.87668099841516
 11
48.635787012900436
 21
846.87668099841528
  0
LINE
  8
_0-1_
  6
CONTINUOUS
 62
    7
 10
48.635787012900436
 20
846.87668099841528
 11
48.635787012900436
 21
846.4766809984153
  0
LINE
  8
_0-1_
  6
CONTINUOUS
 62
    7
 10
48.635787012900436
 20
846.4766809984153
 11
49.635787012900436
 21
846.87668099841528
  0
LINE
  8
_0-1_
  6
CONTINUOUS
 62
    7
 10
49.635787012900436
 20
846.87668099841528
 11
51.685787012900391
 21
846.87668099841528
  0
LINE
  8
_0-1_
  6
CONTINUOUS
 62
    7
 10
51.685787012900391
 20
846.87668099841528
 11
53.735787012900345
 21
846.87668099841528
  0
LINE
  8
_0-1_
  6
CONTINUOUS
 62
    7
 10
53.735787012900345
 20
846.87668099841528
 11
54.735787012900345
 21
846.4766809984153
  0
LINE
  8
_0-1_
  6
CONTINUOUS
 62
    7
 10
54.735787012900345
 20
846.4766809984153
 11
54.735787012900345
 21
846.87668099841528
  0
LINE
  8
_0-1_
  6
CONTINUOUS
 62
    7
 10
54.735787012900345
 20
846.87668099841528
 11
54.735787012900345
 21
848.87668099841516
  0
LINE
  8
_0-1_
  6
CONTINUOUS
 62
    7
 10
54.735787012900345
 20
848.87668099841516
 11
54.735787012900345
 21
850.87668099841528
  0
LINE
  8
_0-1_
  6
CONTINUOUS
 62
    7
 10
54.735787012900345
 20
850.87668099841528
 11
54.735787012900345
 21
852.87668099841516
  0
LINE
  8
_0-1_
  6
CONTINUOUS
 62
    7
 10
54.735787012900345
 20
852.87668099841516
 11
54.735787012900345
 21
865.92668099841523
  0
LINE
  8
_0-1_
  6
CONTINUOUS
 62
    7
 10
54.735787012900345
 20
865.92668099841523
 11
54.735787012900345
 21
867.74999099841522
  0
LINE
  8
_0-1_
  6
CONTINUOUS
 62
    7
 10
54.735787012900345
 20
867.74999099841522
 11
54.735787012900345
 21
868.80338099841515
  0
LINE
  8
_0-1_
  6
CONTINUOUS
 62
    7
 10
54.735787012900345
 20
868.80338099841515
 11
54.735787012900345
 21
868.87668099841528
  0
LINE
  8
_0-1_
  6
CONTINUOUS
 62
    7
 10
54.735787012900345
 20
868.87668099841528
 11
55.01906701290045
 21
868.87668099841528
  0
LINE
  8
_0-1_
  6
CONTINUOUS
 62
    7
 10
55.01906701290045
 20
868.87668099841528
 11
55.023177012900305
 21
868.87668099841528
  0
ARC
  8
_0-1_
  6
CONTINUOUS
 62
    7
 10
55.023184197501677
 20
868.27669454834574
 40
0.5999864501125412
 50
6.4294633770099309
 51
90.000686094376149
  0
ARC
  8
_0-1_
  6
CONTINUOUS
 62
    7
 10
46.969848394893006
 20
865.92855044192572
 40
8.9804517142728101
 50
3.257819978343142
 51
15.602047459919621
  0
LINE
  8
_0-1_
  6
CONTINUOUS
 62
    7
 10
55.935787012900391
 20
866.4389009984153
 11
55.935787012900391
 21
865.92668099841523
  0
LINE
  8
_0-1_
  6
CONTINUOUS
 62
    7
 10
55.935787012900391
 20
865.92668099841523
 11
55.935787012900391
 21
863.87668099841528
  0
LINE
  8
_0-1_
  6
CONTINUOUS
 62
    7
 10
55.935787012900391
 20
863.87668099841528
 11
55.935787012900391
 21
852.87668099841516
  0
LINE
  8
_0-1_
  6
CONTINUOUS
 62
    7
 10
55.935787012900391
 20
852.87668099841516
 11
55.935787012900391
 21
850.87668099841528
  0
LINE
  8
_0-1_
  6
CONTINUOUS
 62
    7
 10
55.935787012900391
 20
850.87668099841528
 11
55.935787012900391
 21
848.87668099841516
  0
LINE
  8
_0-1_
  6
CONTINUOUS
 62
    7
 10
55.935787012900391
 20
848.87668099841516
 11
55.935787012900391
 21
846.87668099841528
  0
LINE
  8
_0-1_
  6
CONTINUOUS
 62
    7
 10
55.935787012900391
 20
846.87668099841528
 11
55.935787012900391
 21
844.87668099841516
  0
LINE
  8
_0-1_
  6
CONTINUOUS
 62
    7
 10
55.935787012900391
 20
844.87668099841516
 11
55.935787012900391
 21
833.87668099841528
  0
LINE
  8
_0-1_
  6
CONTINUOUS
 62
    7
 10
55.935787012900391
 20
833.87668099841528
 11
55.935787012900391
 21
831.82668099841544
  0
LINE
  8
_0-1_
  6
CONTINUOUS
 62
    7
 10
55.935787012900391
 20
831.82668099841544
 11
55.935787012900391
 21
831.31446099841514
  0
LINE
  8
_0-1_
  6
CONTINUOUS
 62
    7
 10
53.435787012900391
 20
825.37668099841528
 11
53.435787012900391
 21
828.87668099841516
  0
LINE
  8
_0-1_
  6
CONTINUOUS
 62
    7
 10
53.435787012900391
 20
828.87668099841516
 11
51.685787012900391
 21
828.87668099841516
  0
LINE
  8
_0-1_
  6
CONTINUOUS
 62
    7
 10
51.685787012900391
 20
828.87668099841516
 11
49.935787012900391
 21
828.87668099841516
  0
LINE
  8
_0-1_
  6
CONTINUOUS
 62
    7
 10
49.935787012900391
 20
828.87668099841516
 11
49.935787012900391
 21
825.37668099841528
  0
LINE
  8
_0-1_
  6
CONTINUOUS
 62
    7
 10
49.935787012900391
 20
825.37668099841528
 11
53.435787012900391
 21
825.37668099841528
  0
LINE
  8
_0-1_
  6
CONTINUOUS
 62
    7
 10
48.685787012900391
 20
828.87668099841516
 11
54.685787012900391
 21
828.87668099841516
  0
LINE
  8
_0-1_
  6
CONTINUOUS
 62
    7
 10
54.685787012900391
 20
828.87668099841516
 11
54.685787012900391
 21
830.87668099841528
  0
LINE
  8
_0-1_
  6
CONTINUOUS
 62
    7
 10
54.685787012900391
 20
830.87668099841528
 11
48.685787012900391
 21
830.87668099841528
  0
LINE
  8
_0-1_
  6
CONTINUOUS
 62
    7
 10
48.685787012900391
 20
830.87668099841528
 11
48.685787012900391
 21
828.87668099841516
  0
LINE
  8
_0-1_
  6
CONTINUOUS
 62
    7
 10
49.685787012900391
 20
830.87668099841528
 11
48.685787012900391
 21
830.87668099841528
  0
LINE
  8
_0-1_
  6
CONTINUOUS
 62
    7
 10
54.685787012900391
 20
830.87668099841528
 11
53.685787012900391
 21
830.87668099841528
  0
POINT
  8
_0-4_
 62
    7
 10
99.935787012900391
 20
825.37668099841528
  0
POINT
  8
_0-4_
 62
    7
 10
99.935787012900391
 20
868.87668099841528
  0
LINE
  8
_0-4_
  6
CONTINUOUS
 62
    7
 10
99.935787012900391
 20
825.37668099841528
 11
81.685787012900391
 21
825.37668099841528
  0
LINE
  8
_0-4_
  6
CONTINUOUS
 62
    7
 10
99.935787012900391
 20
868.87668099841528
 11
81.685787012900391
 21
868.87668099841528
  0
LINE
  8
_0-4_
  6
CONTINUOUS
 62
    7
 10
99.935787012900391
 20
825.37668099841528
 11
99.935787012900391
 21
868.87668099841528
  0
TEXT
  8
_0-4_
 62
    7
 10
99.935787012900391
 20
829.62668099841528
 40
16
 41
1
 50
90
  1
43.5
  0
POINT
  8
_0-4_
 62
    7
 10
48.635787012900436
 20
875.37668099841528
  0
POINT
  8
_0-4_
 62
    7
 10
54.735787012900345
 20
875.37668099841528
  0
LINE
  8
_0-4_
  6
CONTINUOUS
 62
    7
 10
48.635787012900436
 20
875.37668099841528
 11
48.635787012900436
 21
855.37668099841528
  0
LINE
  8
_0-4_
  6
CONTINUOUS
 62
    7
 10
54.735787012900345
 20
875.37668099841528
 11
54.735787012900345
 21
855.37668099841528
  0
LINE
  8
_0-4_
  6
CONTINUOUS
 62
    7
 10
48.635787012900436
 20
875.37668099841528
 11
54.735787012900345
 21
875.37668099841528
  0
TEXT
  8
_0-4_
 62
    7
 10
38.685787012900391
 20
875.37668099841528
 40
16
 41
1
 50
0
  1
6.1
  0
POINT
  8
_0-4_
 62
    7
 10
55.935787012900391
 20
775.37668099841528
  0
POINT
  8
_0-4_
 62
    7
 10
47.435787012900391
 20
775.37668099841528
  0
LINE
  8
_0-4_
  6
CONTINUOUS
 62
    7
 10
55.935787012900391
 20
775.37668099841528
 11
55.935787012900391
 21
795.37668099841528
  0
LINE
  8
_0-4_
  6
CONTINUOUS
 62
    7
 10
47.435787012900391
 20
775.37668099841528
 11
47.435787012900391
 21
795.37668099841528
  0
LINE
  8
_0-4_
  6
CONTINUOUS
 62
    7
 10
55.935787012900391
 20
775.37668099841528
 11
47.435787012900391
 21
775.37668099841528
  0
TEXT
  8
_0-4_
 62
    7
 10
38.685787012900391
 20
775.37668099841528
 40
16
 41
1
 50
0
  1
8.5
  0
TEXT
  8
_0-0_
 62
    7
 10
-48.314212987099608
 20
725.37668099841528
 40
10
 41
1
 50
0
  1
999-02250
  0
LINE
  8
_0-1_
  6
CONTINUOUS
 62
    7
 10
1466.6857870129003
 20
445.57668099841447
 11
1468.6857870129003
 21
445.57668099841447
  0
LINE
  8
_0-1_
  6
CONTINUOUS
 62
    7
 10
1468.6857870129003
 20
445.57668099841447
 11
1468.6857870129003
 21
447.57668099841447
  0
LINE
  8
_0-1_
  6
CONTINUOUS
 62
    7
 10
1468.6857870129003
 20
447.57668099841447
 11
1471.4857870129003
 21
447.57668099841447
  0
LINE
  8
_0-1_
  6
CONTINUOUS
 62
    7
 10
1471.4857870129003
 20
447.57668099841447
 11
1471.4857870129003
 21
452.57668099841458
  0
LINE
  8
_0-1_
  6
CONTINUOUS
 62
    7
 10
1471.4857870129003
 20
452.57668099841458
 11
1473.4857870129003
 21
452.57668099841458
  0
LINE
  8
_0-1_
  6
CONTINUOUS
 62
    7
 10
1473.4857870129003
 20
452.57668099841458
 11
1473.4857870129003
 21
447.57668099841447
  0
LINE
  8
_0-1_
  6
CONTINUOUS
 62
    7
 10
1473.4857870129003
 20
447.57668099841447
 11
1476.2857870129003
 21
447.57668099841447
  0
LINE
  8
_0-1_
  6
CONTINUOUS
 62
    7
 10
1476.2857870129003
 20
447.57668099841447
 11
1476.2857870129003
 21
445.57668099841447
  0
LINE
  8
_0-1_
  6
CONTINUOUS
 62
    7
 10
1476.2857870129003
 20
445.57668099841447
 11
1480.2857870129003
 21
445.57668099841447
  0
LINE
  8
_0-1_
  6
CONTINUOUS
 62
    7
 10
1480.2857870129003
 20
445.57668099841447
 11
1480.2857870129003
 21
447.57668099841447
  0
LINE
  8
_0-1_
  6
CONTINUOUS
 62
    7
 10
1480.2857870129003
 20
447.57668099841447
 11
1483.0857870129004
 21
447.57668099841447
  0
LINE
  8
_0-1_
  6
CONTINUOUS
 62
    7
 10
1483.0857870129004
 20
447.57668099841447
 11
1483.0857870129004
 21
451.37668099841448
  0
LINE
  8
_0-1_
  6
CONTINUOUS
 62
    7
 10
1483.0857870129004
 20
451.37668099841448
 11
1483.0857870129004
 21
452.57668099841458
  0
LINE
  8
_0-1_
  6
CONTINUOUS
 62
    7
 10
1483.0857870129004
 20
452.57668099841458
 11
1484.2857870129003
 21
452.57668099841458
  0
LINE
  8
_0-1_
  6
CONTINUOUS
 62
    7
 10
1484.2857870129003
 20
452.57668099841458
 11
1485.0857870129004
 21
452.57668099841458
  0
ARC
  8
_0-1_
  6
CONTINUOUS
 62
    7
 10
1485.0857877599753
 20
451.57668174548967
 40
0.9999992529250956
 50
359.99995719571302
 51
90.000042804286977
  0
LINE
  8
_0-1_
  6
CONTINUOUS
 62
    7
 10
1486.0857870129004
 20
451.57668099841447
 11
1486.0857870129004
 21
451.37668099841448
  0
LINE
  8
_0-1_
  6
CONTINUOUS
 62
    7
 10
1486.0857870129004
 20
451.37668099841448
 11
1484.2857870129003
 21
451.37668099841448
  0
LINE
  8
_0-1_
  6
CONTINUOUS
 62
    7
 10
1484.2857870129003
 20
451.37668099841448
 11
1484.2857870129003
 21
445.57668099841447
  0
LINE
  8
_0-1_
  6
CONTINUOUS
 62
    7
 10
1484.2857870129003
 20
445.57668099841447
 11
1484.2857870129003
 21
444.07668099841447
  0
LINE
  8
_0-1_
  6
CONTINUOUS
 62
    7
 10
1484.2857870129003
 20
444.07668099841447
 11
1483.0857870129004
 21
444.07668099841447
  0
LINE
  8
_0-1_
  6
CONTINUOUS
 62
    7
 10
1483.0857870129004
 20
444.07668099841447
 11
1483.0857870129004
 21
446.37668099841448
  0
LINE
  8
_0-1_
  6
CONTINUOUS
 62
    7
 10
1483.0857870129004
 20
446.37668099841448
 11
1481.5857870129004
 21
446.37668099841448
  0
LINE
  8
_0-1_
  6
CONTINUOUS
 62
    7
 10
1481.5857870129004
 20
446.37668099841448
 11
1481.4857870129003
 21
446.37668099841448
  0
LINE
  8
_0-1_
  6
CONTINUOUS
 62
    7
 10
1481.4857870129003
 20
446.37668099841448
 11
1481.4857870129003
 21
444.07668099841447
  0
LINE
  8
_0-1_
  6
CONTINUOUS
 62
    7
 10
1481.4857870129003
 20
444.07668099841447
 11
1475.0857870129004
 21
444.07668099841447
  0
LINE
  8
_0-1_
  6
CONTINUOUS
 62
    7
 10
1475.0857870129004
 20
444.07668099841447
 11
1475.0857870129004
 21
446.37668099841448
  0
LINE
  8
_0-1_
  6
CONTINUOUS
 62
    7
 10
1475.0857870129004
 20
446.37668099841448
 11
1469.8857870128992
 21
446.37668099841448
  0
LINE
  8
_0-1_
  6
CONTINUOUS
 62
    7
 10
1469.8857870128992
 20
446.37668099841448
 11
1469.8857870128992
 21
444.07668099841447
  0
LINE
  8
_0-1_
  6
CONTINUOUS
 62
    7
 10
1469.8857870128992
 20
444.07668099841447
 11
1466.6857870129003
 21
444.07668099841447
  0
LINE
  8
_0-1_
  6
CONTINUOUS
 62
    7
 10
1466.6857870129003
 20
444.07668099841447
 11
1463.4857870129003
 21
444.07668099841447
  0
LINE
  8
_0-1_
  6
CONTINUOUS
 62
    7
 10
1463.4857870129003
 20
444.07668099841447
 11
1463.4857870129003
 21
446.37668099841448
  0
LINE
  8
_0-1_
  6
CONTINUOUS
 62
    7
 10
1463.4857870129003
 20
446.37668099841448
 11
1458.2857870129003
 21
446.37668099841448
  0
LINE
  8
_0-1_
  6
CONTINUOUS
 62
    7
 10
1458.2857870129003
 20
446.37668099841448
 11
1458.2857870129003
 21
444.07668099841447
  0
LINE
  8
_0-1_
  6
CONTINUOUS
 62
    7
 10
1458.2857870129003
 20
444.07668099841447
 11
1451.8857870128992
 21
444.07668099841447
  0
LINE
  8
_0-1_
  6
CONTINUOUS
 62
    7
 10
1451.8857870128992
 20
444.07668099841447
 11
1451.8857870128992
 21
446.37668099841448
  0
LINE
  8
_0-1_
  6
CONTINUOUS
 62
    7
 10
1451.8857870128992
 20
446.37668099841448
 11
1451.7857870129003
 21
446.37668099841448
  0
LINE
  8
_0-1_
  6
CONTINUOUS
 62
    7
 10
1451.7857870129003
 20
446.37668099841448
 11
1450.2857870129003
 21
446.37668099841448
  0
LINE
  8
_0-1_
  6
CONTINUOUS
 62
    7
 10
1450.2857870129003
 20
446.37668099841448
 11
1450.2857870129003
 21
444.07668099841447
  0
LINE
  8
_0-1_
  6
CONTINUOUS
 62
    7
 10
1450.2857870129003
 20
444.07668099841447
 11
1449.0857870129004
 21
444.07668099841447
  0
LINE
  8
_0-1_
  6
CONTINUOUS
 62
    7
 10
1449.0857870129004
 20
444.07668099841447
 11
1449.0857870129004
 21
445.57668099841447
  0
LINE
  8
_0-1_
  6
CONTINUOUS
 62
    7
 10
1449.0857870129004
 20
445.57668099841447
 11
1449.0857870129004
 21
451.37668099841448
  0
LINE
  8
_0-1_
  6
CONTINUOUS
 62
    7
 10
1449.0857870129004
 20
451.37668099841448
 11
1447.2857870129003
 21
451.37668099841448
  0
LINE
  8
_0-1_
  6
CONTINUOUS
 62
    7
 10
1447.2857870129003
 20
451.37668099841448
 11
1447.2857870129003
 21
451.57668099841447
  0
ARC
  8
_0-1_
  6
CONTINUOUS
 62
    7
 10
1448.2857862658254
 20
451.57668174548967
 40
0.9999992529250956
 50
89.999957195713022
 51
180.00004280428686
  0
LINE
  8
_0-1_
  6
CONTINUOUS
 62
    7
 10
1448.2857870129003
 20
452.57668099841458
 11
1449.0857870129004
 21
452.57668099841458
  0
LINE
  8
_0-1_
  6
CONTINUOUS
 62
    7
 10
1449.0857870129004
 20
452.57668099841458
 11
1450.2857870129003
 21
452.57668099841458
  0
LINE
  8
_0-1_
  6
CONTINUOUS
 62
    7
 10
1450.2857870129003
 20
452.57668099841458
 11
1450.2857870129003
 21
451.37668099841448
  0
LINE
  8
_0-1_
  6
CONTINUOUS
 62
    7
 10
1450.2857870129003
 20
451.37668099841448
 11
1450.2857870129003
 21
447.57668099841447
  0
LINE
  8
_0-1_
  6
CONTINUOUS
 62
    7
 10
1450.2857870129003
 20
447.57668099841447
 11
1453.0857870129004
 21
447.57668099841447
  0
LINE
  8
_0-1_
  6
CONTINUOUS
 62
    7
 10
1453.0857870129004
 20
447.57668099841447
 11
1453.0857870129004
 21
445.57668099841447
  0
LINE
  8
_0-1_
  6
CONTINUOUS
 62
    7
 10
1453.0857870129004
 20
445.57668099841447
 11
1457.0857870129004
 21
445.57668099841447
  0
LINE
  8
_0-1_
  6
CONTINUOUS
 62
    7
 10
1457.0857870129004
 20
445.57668099841447
 11
1457.0857870129004
 21
447.57668099841447
  0
LINE
  8
_0-1_
  6
CONTINUOUS
 62
    7
 10
1457.0857870129004
 20
447.57668099841447
 11
1459.8857870128992
 21
447.57668099841447
  0
LINE
  8
_0-1_
  6
CONTINUOUS
 62
    7
 10
1459.8857870128992
 20
447.57668099841447
 11
1459.8857870128992
 21
452.57668099841458
  0
LINE
  8
_0-1_
  6
CONTINUOUS
 62
    7
 10
1459.8857870128992
 20
452.57668099841458
 11
1461.8857870128992
 21
452.57668099841458
  0
LINE
  8
_0-1_
  6
CONTINUOUS
 62
    7
 10
1461.8857870128992
 20
452.57668099841458
 11
1461.8857870128992
 21
447.57668099841447
  0
LINE
  8
_0-1_
  6
CONTINUOUS
 62
    7
 10
1461.8857870128992
 20
447.57668099841447
 11
1464.6857870129003
 21
447.57668099841447
  0
LINE
  8
_0-1_
  6
CONTINUOUS
 62
    7
 10
1464.6857870129003
 20
447.57668099841447
 11
1464.6857870129003
 21
445.57668099841447
  0
LINE
  8
_0-1_
  6
CONTINUOUS
 62
    7
 10
1464.6857870129003
 20
445.57668099841447
 11
1466.6857870129003
 21
445.57668099841447
  0
LINE
  8
_0-1_
  6
CONTINUOUS
 62
    7
 10
1482.2857870129003
 20
1098.9766809984148
 11
1472.6857870129003
 21
1098.9766809984148
  0
LINE
  8
_0-1_
  6
CONTINUOUS
 62
    7
 10
1472.6857870129003
 20
1098.9766809984148
 11
1472.6857870129003
 21
1085.3766809984149
  0
LINE
  8
_0-1_
  6
CONTINUOUS
 62
    7
 10
1472.6857870129003
 20
1085.3766809984149
 11
1473.0857870129004
 21
1084.1766809984151
  0
LINE
  8
_0-1_
  6
CONTINUOUS
 62
    7
 10
1473.0857870129004
 20
1084.1766809984151
 11
1472.6857870129003
 21
1084.1766809984151
  0
LINE
  8
_0-1_
  6
CONTINUOUS
 62
    7
 10
1472.6857870129003
 20
1084.1766809984151
 11
1471.4857870129003
 21
1084.1766809984151
  0
LINE
  8
_0-1_
  6
CONTINUOUS
 62
    7
 10
1471.4857870129003
 20
1084.1766809984151
 11
1471.0857870129004
 21
1084.1766809984151
  0
LINE
  8
_0-1_
  6
CONTINUOUS
 62
    7
 10
1471.0857870129004
 20
1084.1766809984151
 11
1471.4857870129003
 21
1085.3766809984149
  0
LINE
  8
_0-1_
  6
CONTINUOUS
 62
    7
 10
1471.4857870129003
 20
1085.3766809984149
 11
1471.4857870129003
 21
1098.9766809984148
  0
LINE
  8
_0-1_
  6
CONTINUOUS
 62
    7
 10
1471.4857870129003
 20
1098.9766809984148
 11
1466.6857870129003
 21
1098.9766809984148
  0
LINE
  8
_0-1_
  6
CONTINUOUS
 62
    7
 10
1466.6857870129003
 20
1098.9766809984148
 11
1461.8857870128992
 21
1098.9766809984148
  0
LINE
  8
_0-1_
  6
CONTINUOUS
 62
    7
 10
1461.8857870128992
 20
1098.9766809984148
 11
1461.8857870128992
 21
1085.3766809984149
  0
LINE
  8
_0-1_
  6
CONTINUOUS
 62
    7
 10
1461.8857870128992
 20
1085.3766809984149
 11
1462.2857870129003
 21
1084.1766809984151
  0
LINE
  8
_0-1_
  6
CONTINUOUS
 62
    7
 10
1462.2857870129003
 20
1084.1766809984151
 11
1461.8857870128992
 21
1084.1766809984151
  0
LINE
  8
_0-1_
  6
CONTINUOUS
 62
    7
 10
1461.8857870128992
 20
1084.1766809984151
 11
1460.6857870129003
 21
1084.1766809984151
  0
LINE
  8
_0-1_
  6
CONTINUOUS
 62
    7
 10
1460.6857870129003
 20
1084.1766809984151
 11
1460.2857870129003
 21
1084.1766809984151
  0
LINE
  8
_0-1_
  6
CONTINUOUS
 62
    7
 10
1460.2857870129003
 20
1084.1766809984151
 11
1460.6857870129003
 21
1085.3766809984149
  0
LINE
  8
_0-1_
  6
CONTINUOUS
 62
    7
 10
1460.6857870129003
 20
1085.3766809984149
 11
1460.6857870129003
 21
1098.9766809984148
  0
LINE
  8
_0-1_
  6
CONTINUOUS
 62
    7
 10
1460.6857870129003
 20
1098.9766809984148
 11
1451.0857870129004
 21
1098.9766809984148
  0
LINE
  8
_0-1_
  6
CONTINUOUS
 62
    7
 10
1451.0857870129004
 20
1098.9766809984148
 11
1451.0857870129004
 21
1085.3766809984149
  0
LINE
  8
_0-1_
  6
CONTINUOUS
 62
    7
 10
1451.0857870129004
 20
1085.3766809984149
 11
1451.0857870129004
 21
1084.1766809984151
  0
LINE
  8
_0-1_
  6
CONTINUOUS
 62
    7
 10
1451.0857870129004
 20
1084.1766809984151
 11
1449.8857870129004
 21
1084.1766809984151
  0
LINE
  8
_0-1_
  6
CONTINUOUS
 62
    7
 10
1449.8857870129004
 20
1084.1766809984151
 11
1448.0857870129004
 21
1084.1766809984151
  0
LINE
  8
_0-1_
  6
CONTINUOUS
 62
    7
 10
1448.0857870129004
 20
1084.1766809984151
 11
1448.0857870129004
 21
1085.3766809984149
  0
LINE
  8
_0-1_
  6
CONTINUOUS
 62
    7
 10
1448.0857870129004
 20
1085.3766809984149
 11
1449.8857870129004
 21
1085.3766809984149
  0
LINE
  8
_0-1_
  6
CONTINUOUS
 62
    7
 10
1449.8857870129004
 20
1085.3766809984149
 11
1449.8857870129004
 21
1098.9766809984148
  0
LINE
  8
_0-1_
  6
CONTINUOUS
 62
    7
 10
1449.8857870129004
 20
1098.9766809984148
 11
1449.8857870129004
 21
1100.1766809984151
  0
LINE
  8
_0-1_
  6
CONTINUOUS
 62
    7
 10
1449.8857870129004
 20
1100.1766809984151
 11
1451.0857870129004
 21
1100.1766809984151
  0
LINE
  8
_0-1_
  6
CONTINUOUS
 62
    7
 10
1451.0857870129004
 20
1100.1766809984151
 11
1460.6857870129003
 21
1100.1766809984151
  0
LINE
  8
_0-1_
  6
CONTINUOUS
 62
    7
 10
1460.6857870129003
 20
1100.1766809984151
 11
1461.8857870128992
 21
1100.1766809984151
  0
LINE
  8
_0-1_
  6
CONTINUOUS
 62
    7
 10
1461.8857870128992
 20
1100.1766809984151
 11
1466.6857870129003
 21
1100.1766809984151
  0
LINE
  8
_0-1_
  6
CONTINUOUS
 62
    7
 10
1466.6857870129003
 20
1100.1766809984151
 11
1471.4857870129003
 21
1100.1766809984151
  0
LINE
  8
_0-1_
  6
CONTINUOUS
 62
    7
 10
1471.4857870129003
 20
1100.1766809984151
 11
1472.6857870129003
 21
1100.1766809984151
  0
LINE
  8
_0-1_
  6
CONTINUOUS
 62
    7
 10
1472.6857870129003
 20
1100.1766809984151
 11
1482.2857870129003
 21
1100.1766809984151
  0
LINE
  8
_0-1_
  6
CONTINUOUS
 62
    7
 10
1482.2857870129003
 20
1100.1766809984151
 11
1483.4857870129003
 21
1100.1766809984151
  0
LINE
  8
_0-1_
  6
CONTINUOUS
 62
    7
 10
1483.4857870129003
 20
1100.1766809984151
 11
1483.4857870129003
 21
1098.9766809984148
  0
LINE
  8
_0-1_
  6
CONTINUOUS
 62
    7
 10
1483.4857870129003
 20
1098.9766809984148
 11
1483.4857870129003
 21
1085.3766809984149
  0
LINE
  8
_0-1_
  6
CONTINUOUS
 62
    7
 10
1483.4857870129003
 20
1085.3766809984149
 11
1485.2857870129003
 21
1085.3766809984149
  0
LINE
  8
_0-1_
  6
CONTINUOUS
 62
    7
 10
1485.2857870129003
 20
1085.3766809984149
 11
1485.2857870129003
 21
1084.1766809984151
  0
LINE
  8
_0-1_
  6
CONTINUOUS
 62
    7
 10
1485.2857870129003
 20
1084.1766809984151
 11
1483.4857870129003
 21
1084.1766809984151
  0
LINE
  8
_0-1_
  6
CONTINUOUS
 62
    7
 10
1483.4857870129003
 20
1084.1766809984151
 11
1482.2857870129003
 21
1084.1766809984151
  0
LINE
  8
_0-1_
  6
CONTINUOUS
 62
    7
 10
1482.2857870129003
 20
1084.1766809984151
 11
1482.2857870129003
 21
1085.3766809984149
  0
LINE
  8
_0-1_
  6
CONTINUOUS
 62
    7
 10
1482.2857870129003
 20
1085.3766809984149
 11
1482.2857870129003
 21
1098.9766809984148
  0
LINE
  8
_0-1_
  6
CONTINUOUS
 62
    7
 10
1458.1357870129004
 20
469.07668099841458
 11
1458.1357870129004
 21
449.07668099841458
  0
LINE
  8
_0-1_
  6
CONTINUOUS
 62
    7
 10
1452.0357870129003
 20
469.07668099841458
 11
1452.0357870129003
 21
449.07668099841458
  0
ARC
  8
_0-1_
  6
CONTINUOUS
 62
    7
 10
1450.3700127108834
 20
452.02478426436215
 40
8.9802861129515392
 50
344.3978382806477
 51
356.74229428108969
  0
ARC
  8
_0-1_
  6
CONTINUOUS
 62
    7
 10
1458.4231789607003
 20
449.67667330863008
 40
0.5999923102187105
 50
269.99981399644269
 51
353.57003653217111
  0
LINE
  8
_0-1_
  6
CONTINUOUS
 62
    7
 10
1458.4231770129003
 20
449.07668099841458
 11
1458.4190670129003
 21
449.07668099841458
  0
LINE
  8
_0-1_
  6
CONTINUOUS
 62
    7
 10
1458.4190670129003
 20
449.07668099841458
 11
1458.1357870129004
 21
449.07668099841458
  0
LINE
  8
_0-1_
  6
CONTINUOUS
 62
    7
 10
1458.1357870129004
 20
449.07668099841458
 11
1458.1357870129004
 21
449.1499809984146
  0
LINE
  8
_0-1_
  6
CONTINUOUS
 62
    7
 10
1458.1357870129004
 20
449.1499809984146
 11
1458.1357870129004
 21
450.20337099841447
  0
LINE
  8
_0-1_
  6
CONTINUOUS
 62
    7
 10
1458.1357870129004
 20
450.20337099841447
 11
1458.1357870129004
 21
452.02668099841446
  0
LINE
  8
_0-1_
  6
CONTINUOUS
 62
    7
 10
1458.1357870129004
 20
452.02668099841446
 11
1458.1357870129004
 21
465.07668099841458
  0
LINE
  8
_0-1_
  6
CONTINUOUS
 62
    7
 10
1458.1357870129004
 20
465.07668099841458
 11
1458.1357870129004
 21
465.4766809984145
  0
LINE
  8
_0-1_
  6
CONTINUOUS
 62
    7
 10
1458.1357870129004
 20
465.4766809984145
 11
1457.2107870129004
 21
465.07668099841458
  0
LINE
  8
_0-1_
  6
CONTINUOUS
 62
    7
 10
1457.2107870129004
 20
465.07668099841458
 11
1455.0857870129004
 21
465.07668099841458
  0
LINE
  8
_0-1_
  6
CONTINUOUS
 62
    7
 10
1455.0857870129004
 20
465.07668099841458
 11
1452.9607870129004
 21
465.07668099841458
  0
LINE
  8
_0-1_
  6
CONTINUOUS
 62
    7
 10
1452.9607870129004
 20
465.07668099841458
 11
1452.0357870129003
 21
465.4766809984145
  0
LINE
  8
_0-1_
  6
CONTINUOUS
 62
    7
 10
1452.0357870129003
 20
465.4766809984145
 11
1452.0357870129003
 21
465.07668099841458
  0
LINE
  8
_0-1_
  6
CONTINUOUS
 62
    7
 10
1452.0357870129003
 20
465.07668099841458
 11
1452.0357870129003
 21
452.02668099841446
  0
LINE
  8
_0-1_
  6
CONTINUOUS
 62
    7
 10
1452.0357870129003
 20
452.02668099841446
 11
1452.0357870129003
 21
450.20337099841447
  0
LINE
  8
_0-1_
  6
CONTINUOUS
 62
    7
 10
1452.0357870129003
 20
450.20337099841447
 11
1452.0357870129003
 21
449.1499809984146
  0
LINE
  8
_0-1_
  6
CONTINUOUS
 62
    7
 10
1452.0357870129003
 20
449.1499809984146
 11
1452.0357870129003
 21
449.07668099841458
  0
LINE
  8
_0-1_
  6
CONTINUOUS
 62
    7
 10
1452.0357870129003
 20
449.07668099841458
 11
1451.7525070129004
 21
449.07668099841458
  0
LINE
  8
_0-1_
  6
CONTINUOUS
 62
    7
 10
1451.7525070129004
 20
449.07668099841458
 11
1451.7483970129003
 21
449.07668099841458
  0
ARC
  8
_0-1_
  6
CONTINUOUS
 62
    7
 10
1451.7483898282994
 20
449.67666744848418
 40
0.5999864501125412
 50
186.42946337700999
 51
270.0006860943763
  0
ARC
  8
_0-1_
  6
CONTINUOUS
 62
    7
 10
1459.8017256309074
 20
452.02481155490397
 40
8.9804517142728261
 50
183.25781997834309
 51
195.60204745991961
  0
LINE
  8
_0-1_
  6
CONTINUOUS
 62
    7
 10
1450.8357870129004
 20
451.51446099841456
 11
1450.8357870129004
 21
452.02668099841446
  0
LINE
  8
_0-1_
  6
CONTINUOUS
 62
    7
 10
1450.8357870129004
 20
452.02668099841446
 11
1450.8357870129004
 21
454.07668099841447
  0
LINE
  8
_0-1_
  6
CONTINUOUS
 62
    7
 10
1450.8357870129004
 20
454.07668099841447
 11
1450.8357870129004
 21
465.07668099841458
  0
LINE
  8
_0-1_
  6
CONTINUOUS
 62
    7
 10
1450.8357870129004
 20
465.07668099841458
 11
1450.8357870129004
 21
467.07668099841458
  0
LINE
  8
_0-1_
  6
CONTINUOUS
 62
    7
 10
1450.8357870129004
 20
467.07668099841458
 11
1450.8357870129004
 21
469.07668099841458
  0
LINE
  8
_0-1_
  6
CONTINUOUS
 62
    7
 10
1450.8357870129004
 20
469.07668099841458
 11
1450.8357870129004
 21
471.07668099841447
  0
LINE
  8
_0-1_
  6
CONTINUOUS
 62
    7
 10
1450.8357870129004
 20
471.07668099841447
 11
1450.8357870129004
 21
473.07668099841447
  0
LINE
  8
_0-1_
  6
CONTINUOUS
 62
    7
 10
1450.8357870129004
 20
473.07668099841447
 11
1450.8357870129004
 21
484.07668099841458
  0
LINE
  8
_0-1_
  6
CONTINUOUS
 62
    7
 10
1450.8357870129004
 20
484.07668099841458
 11
1450.8357870129004
 21
486.12668099841448
  0
LINE
  8
_0-1_
  6
CONTINUOUS
 62
    7
 10
1450.8357870129004
 20
486.12668099841448
 11
1450.8357870129004
 21
486.63890099841449
  0
ARC
  8
_0-1_
  6
CONTINUOUS
 62
    7
 10
1459.8015613149173
 20
486.1285777324669
 40
8.9802861129515232
 50
164.39783828064759
 51
176.74229428108961
  0
ARC
  8
_0-1_
  6
CONTINUOUS
 62
    7
 10
1451.7483950651003
 20
488.47668868819897
 40
0.5999923102187105
 50
89.999813996442711
 51
173.57003653217108
  0
LINE
  8
_0-1_
  6
CONTINUOUS
 62
    7
 10
1451.7483970129003
 20
489.07668099841447
 11
1451.7525070129004
 21
489.07668099841447
  0
LINE
  8
_0-1_
  6
CONTINUOUS
 62
    7
 10
1451.7525070129004
 20
489.07668099841447
 11
1452.0357870129003
 21
489.07668099841447
  0
LINE
  8
_0-1_
  6
CONTINUOUS
 62
    7
 10
1452.0357870129003
 20
489.07668099841447
 11
1452.0357870129003
 21
489.00338099841445
  0
LINE
  8
_0-1_
  6
CONTINUOUS
 62
    7
 10
1452.0357870129003
 20
489.00338099841445
 11
1452.0357870129003
 21
487.94999099841459
  0
LINE
  8
_0-1_
  6
CONTINUOUS
 62
    7
 10
1452.0357870129003
 20
487.94999099841459
 11
1452.0357870129003
 21
486.12668099841448
  0
LINE
  8
_0-1_
  6
CONTINUOUS
 62
    7
 10
1452.0357870129003
 20
486.12668099841448
 11
1452.0357870129003
 21
473.07668099841447
  0
LINE
  8
_0-1_
  6
CONTINUOUS
 62
    7
 10
1452.0357870129003
 20
473.07668099841447
 11
1452.0357870129003
 21
471.07668099841447
  0
LINE
  8
_0-1_
  6
CONTINUOUS
 62
    7
 10
1452.0357870129003
 20
471.07668099841447
 11
1452.0357870129003
 21
469.07668099841458
  0
LINE
  8
_0-1_
  6
CONTINUOUS
 62
    7
 10
1452.0357870129003
 20
469.07668099841458
 11
1452.0357870129003
 21
467.07668099841458
  0
LINE
  8
_0-1_
  6
CONTINUOUS
 62
    7
 10
1452.0357870129003
 20
467.07668099841458
 11
1452.0357870129003
 21
466.67668099841449
  0
LINE
  8
_0-1_
  6
CONTINUOUS
 62
    7
 10
1452.0357870129003
 20
466.67668099841449
 11
1453.0357870129003
 21
467.07668099841458
  0
LINE
  8
_0-1_
  6
CONTINUOUS
 62
    7
 10
1453.0357870129003
 20
467.07668099841458
 11
1455.0857870129004
 21
467.07668099841458
  0
LINE
  8
_0-1_
  6
CONTINUOUS
 62
    7
 10
1455.0857870129004
 20
467.07668099841458
 11
1457.1357870129004
 21
467.07668099841458
  0
LINE
  8
_0-1_
  6
CONTINUOUS
 62
    7
 10
1457.1357870129004
 20
467.07668099841458
 11
1458.1357870129004
 21
466.67668099841449
  0
LINE
  8
_0-1_
  6
CONTINUOUS
 62
    7
 10
1458.1357870129004
 20
466.67668099841449
 11
1458.1357870129004
 21
467.07668099841458
  0
LINE
  8
_0-1_
  6
CONTINUOUS
 62
    7
 10
1458.1357870129004
 20
467.07668099841458
 11
1458.1357870129004
 21
469.07668099841458
  0
LINE
  8
_0-1_
  6
CONTINUOUS
 62
    7
 10
1458.1357870129004
 20
469.07668099841458
 11
1458.1357870129004
 21
471.07668099841447
  0
LINE
  8
_0-1_
  6
CONTINUOUS
 62
    7
 10
1458.1357870129004
 20
471.07668099841447
 11
1458.1357870129004
 21
473.07668099841447
  0
LINE
  8
_0-1_
  6
CONTINUOUS
 62
    7
 10
1458.1357870129004
 20
473.07668099841447
 11
1458.1357870129004
 21
486.12668099841448
  0
LINE
  8
_0-1_
  6
CONTINUOUS
 62
    7
 10
1458.1357870129004
 20
486.12668099841448
 11
1458.1357870129004
 21
487.94999099841459
  0
LINE
  8
_0-1_
  6
CONTINUOUS
 62
    7
 10
1458.1357870129004
 20
487.94999099841459
 11
1458.1357870129004
 21
489.00338099841445
  0
LINE
  8
_0-1_
  6
CONTINUOUS
 62
    7
 10
1458.1357870129004
 20
489.00338099841445
 11
1458.1357870129004
 21
489.07668099841447
  0
LINE
  8
_0-1_
  6
CONTINUOUS
 62
    7
 10
1458.1357870129004
 20
489.07668099841447
 11
1458.4190670129003
 21
489.07668099841447
  0
LINE
  8
_0-1_
  6
CONTINUOUS
 62
    7
 10
1458.4190670129003
 20
489.07668099841447
 11
1458.4231770129003
 21
489.07668099841447
  0
ARC
  8
_0-1_
  6
CONTINUOUS
 62
    7
 10
1458.4231841975013
 20
488.47669454834499
 40
0.5999864501125412
 50
6.4294633770099309
 51
90.000686094376149
  0
ARC
  8
_0-1_
  6
CONTINUOUS
 62
    7
 10
1450.3698483948933
 20
486.12855044192508
 40
8.9804517142728101
 50
3.257819978343142
 51
15.602047459919621
  0
LINE
  8
_0-1_
  6
CONTINUOUS
 62
    7
 10
1459.3357870129004
 20
486.63890099841449
 11
1459.3357870129004
 21
486.12668099841448
  0
LINE
  8
_0-1_
  6
CONTINUOUS
 62
    7
 10
1459.3357870129004
 20
486.12668099841448
 11
1459.3357870129004
 21
484.07668099841458
  0
LINE
  8
_0-1_
  6
CONTINUOUS
 62
    7
 10
1459.3357870129004
 20
484.07668099841458
 11
1459.3357870129004
 21
473.07668099841447
  0
LINE
  8
_0-1_
  6
CONTINUOUS
 62
    7
 10
1459.3357870129004
 20
473.07668099841447
 11
1459.3357870129004
 21
471.07668099841447
  0
LINE
  8
_0-1_
  6
CONTINUOUS
 62
    7
 10
1459.3357870129004
 20
471.07668099841447
 11
1459.3357870129004
 21
469.07668099841458
  0
LINE
  8
_0-1_
  6
CONTINUOUS
 62
    7
 10
1459.3357870129004
 20
469.07668099841458
 11
1459.3357870129004
 21
467.07668099841458
  0
LINE
  8
_0-1_
  6
CONTINUOUS
 62
    7
 10
1459.3357870129004
 20
467.07668099841458
 11
1459.3357870129004
 21
465.07668099841458
  0
LINE
  8
_0-1_
  6
CONTINUOUS
 62
    7
 10
1459.3357870129004
 20
465.07668099841458
 11
1459.3357870129004
 21
454.07668099841447
  0
LINE
  8
_0-1_
  6
CONTINUOUS
 62
    7
 10
1459.3357870129004
 20
454.07668099841447
 11
1459.3357870129004
 21
452.02668099841446
  0
LINE
  8
_0-1_
  6
CONTINUOUS
 62
    7
 10
1459.3357870129004
 20
452.02668099841446
 11
1459.3357870129004
 21
451.51446099841456
  0
LINE
  8
_0-1_
  6
CONTINUOUS
 62
    7
 10
1456.8357870129004
 20
445.57668099841447
 11
1456.8357870129004
 21
449.07668099841458
  0
LINE
  8
_0-1_
  6
CONTINUOUS
 62
    7
 10
1456.8357870129004
 20
449.07668099841458
 11
1455.0857870129004
 21
449.07668099841458
  0
LINE
  8
_0-1_
  6
CONTINUOUS
 62
    7
 10
1455.0857870129004
 20
449.07668099841458
 11
1453.3357870129004
 21
449.07668099841458
  0
LINE
  8
_0-1_
  6
CONTINUOUS
 62
    7
 10
1453.3357870129004
 20
449.07668099841458
 11
1453.3357870129004
 21
445.57668099841447
  0
LINE
  8
_0-1_
  6
CONTINUOUS
 62
    7
 10
1453.3357870129004
 20
445.57668099841447
 11
1456.8357870129004
 21
445.57668099841447
  0
LINE
  8
_0-1_
  6
CONTINUOUS
 62
    7
 10
1452.0857870129004
 20
449.07668099841458
 11
1458.0857870129004
 21
449.07668099841458
  0
LINE
  8
_0-1_
  6
CONTINUOUS
 62
    7
 10
1458.0857870129004
 20
449.07668099841458
 11
1458.0857870129004
 21
451.07668099841458
  0
LINE
  8
_0-1_
  6
CONTINUOUS
 62
    7
 10
1458.0857870129004
 20
451.07668099841458
 11
1452.0857870129004
 21
451.07668099841458
  0
LINE
  8
_0-1_
  6
CONTINUOUS
 62
    7
 10
1452.0857870129004
 20
451.07668099841458
 11
1452.0857870129004
 21
449.07668099841458
  0
LINE
  8
_0-1_
  6
CONTINUOUS
 62
    7
 10
1453.0857870129004
 20
451.07668099841458
 11
1452.0857870129004
 21
451.07668099841458
  0
LINE
  8
_0-1_
  6
CONTINUOUS
 62
    7
 10
1458.0857870129004
 20
451.07668099841458
 11
1457.0857870129004
 21
451.07668099841458
  0
LINE
  8
_0-1_
  6
CONTINUOUS
 62
    7
 10
1469.7357870129003
 20
469.07668099841458
 11
1469.7357870129003
 21
449.07668099841458
  0
LINE
  8
_0-1_
  6
CONTINUOUS
 62
    7
 10
1463.6357870129004
 20
469.07668099841458
 11
1463.6357870129004
 21
449.07668099841458
  0
ARC
  8
_0-1_
  6
CONTINUOUS
 62
    7
 10
1461.9700127108833
 20
452.02478426436215
 40
8.9802861129515392
 50
344.3978382806477
 51
356.74229428108969
  0
ARC
  8
_0-1_
  6
CONTINUOUS
 62
    7
 10
1470.0231789606993
 20
449.67667330863008
 40
0.5999923102187105
 50
269.99981399644269
 51
353.57003653217111
  0
LINE
  8
_0-1_
  6
CONTINUOUS
 62
    7
 10
1470.0231770129003
 20
449.07668099841458
 11
1470.0190670129004
 21
449.07668099841458
  0
LINE
  8
_0-1_
  6
CONTINUOUS
 62
    7
 10
1470.0190670129004
 20
449.07668099841458
 11
1469.7357870129003
 21
449.07668099841458
  0
LINE
  8
_0-1_
  6
CONTINUOUS
 62
    7
 10
1469.7357870129003
 20
449.07668099841458
 11
1469.7357870129003
 21
449.1499809984146
  0
LINE
  8
_0-1_
  6
CONTINUOUS
 62
    7
 10
1469.7357870129003
 20
449.1499809984146
 11
1469.7357870129003
 21
450.20337099841447
  0
LINE
  8
_0-1_
  6
CONTINUOUS
 62
    7
 10
1469.7357870129003
 20
450.20337099841447
 11
1469.7357870129003
 21
452.02668099841446
  0
LINE
  8
_0-1_
  6
CONTINUOUS
 62
    7
 10
1469.7357870129003
 20
452.02668099841446
 11
1469.7357870129003
 21
465.07668099841458
  0
LINE
  8
_0-1_
  6
CONTINUOUS
 62
    7
 10
1469.7357870129003
 20
465.07668099841458
 11
1469.7357870129003
 21
465.4766809984145
  0
LINE
  8
_0-1_
  6
CONTINUOUS
 62
    7
 10
1469.7357870129003
 20
465.4766809984145
 11
1468.8107870129003
 21
465.07668099841458
  0
LINE
  8
_0-1_
  6
CONTINUOUS
 62
    7
 10
1468.8107870129003
 20
465.07668099841458
 11
1466.6857870129003
 21
465.07668099841458
  0
LINE
  8
_0-1_
  6
CONTINUOUS
 62
    7
 10
1466.6857870129003
 20
465.07668099841458
 11
1464.5607870129003
 21
465.07668099841458
  0
LINE
  8
_0-1_
  6
CONTINUOUS
 62
    7
 10
1464.5607870129003
 20
465.07668099841458
 11
1463.6357870129004
 21
465.4766809984145
  0
LINE
  8
_0-1_
  6
CONTINUOUS
 62
    7
 10
1463.6357870129004
 20
465.4766809984145
 11
1463.6357870129004
 21
465.07668099841458
  0
LINE
  8
_0-1_
  6
CONTINUOUS
 62
    7
 10
1463.6357870129004
 20
465.07668099841458
 11
1463.6357870129004
 21
452.02668099841446
  0
LINE
  8
_0-1_
  6
CONTINUOUS
 62
    7
 10
1463.6357870129004
 20
452.02668099841446
 11
1463.6357870129004
 21
450.20337099841447
  0
LINE
  8
_0-1_
  6
CONTINUOUS
 62
    7
 10
1463.6357870129004
 20
450.20337099841447
 11
1463.6357870129004
 21
449.1499809984146
  0
LINE
  8
_0-1_
  6
CONTINUOUS
 62
    7
 10
1463.6357870129004
 20
449.1499809984146
 11
1463.6357870129004
 21
449.07668099841458
  0
LINE
  8
_0-1_
  6
CONTINUOUS
 62
    7
 10
1463.6357870129004
 20
449.07668099841458
 11
1463.3525070129003
 21
449.07668099841458
  0
LINE
  8
_0-1_
  6
CONTINUOUS
 62
    7
 10
1463.3525070129003
 20
449.07668099841458
 11
1463.3483970129004
 21
449.07668099841458
  0
ARC
  8
_0-1_
  6
CONTINUOUS
 62
    7
 10
1463.3483898282993
 20
449.67666744848418
 40
0.5999864501125412
 50
186.42946337700999
 51
270.0006860943763
  0
ARC
  8
_0-1_
  6
CONTINUOUS
 62
    7
 10
1471.4017256309073
 20
452.02481155490397
 40
8.9804517142728261
 50
183.25781997834309
 51
195.60204745991961
  0
LINE
  8
_0-1_
  6
CONTINUOUS
 62
    7
 10
1462.4357870129003
 20
451.51446099841456
 11
1462.4357870129003
 21
452.02668099841446
  0
LINE
  8
_0-1_
  6
CONTINUOUS
 62
    7
 10
1462.4357870129003
 20
452.02668099841446
 11
1462.4357870129003
 21
454.07668099841447
  0
LINE
  8
_0-1_
  6
CONTINUOUS
 62
    7
 10
1462.4357870129003
 20
454.07668099841447
 11
1462.4357870129003
 21
465.07668099841458
  0
LINE
  8
_0-1_
  6
CONTINUOUS
 62
    7
 10
1462.4357870129003
 20
465.07668099841458
 11
1462.4357870129003
 21
467.07668099841458
  0
LINE
  8
_0-1_
  6
CONTINUOUS
 62
    7
 10
1462.4357870129003
 20
467.07668099841458
 11
1462.4357870129003
 21
469.07668099841458
  0
LINE
  8
_0-1_
  6
CONTINUOUS
 62
    7
 10
1462.4357870129003
 20
469.07668099841458
 11
1462.4357870129003
 21
471.07668099841447
  0
LINE
  8
_0-1_
  6
CONTINUOUS
 62
    7
 10
1462.4357870129003
 20
471.07668099841447
 11
1462.4357870129003
 21
473.07668099841447
  0
LINE
  8
_0-1_
  6
CONTINUOUS
 62
    7
 10
1462.4357870129003
 20
473.07668099841447
 11
1462.4357870129003
 21
484.07668099841458
  0
LINE
  8
_0-1_
  6
CONTINUOUS
 62
    7
 10
1462.4357870129003
 20
484.07668099841458
 11
1462.4357870129003
 21
486.12668099841448
  0
LINE
  8
_0-1_
  6
CONTINUOUS
 62
    7
 10
1462.4357870129003
 20
486.12668099841448
 11
1462.4357870129003
 21
486.63890099841449
  0
ARC
  8
_0-1_
  6
CONTINUOUS
 62
    7
 10
1471.4015613149163
 20
486.1285777324669
 40
8.9802861129515232
 50
164.39783828064759
 51
176.74229428108961
  0
ARC
  8
_0-1_
  6
CONTINUOUS
 62
    7
 10
1463.3483950651004
 20
488.47668868819897
 40
0.5999923102187105
 50
89.999813996442711
 51
173.57003653217108
  0
LINE
  8
_0-1_
  6
CONTINUOUS
 62
    7
 10
1463.3483970129004
 20
489.07668099841447
 11
1463.3525070129003
 21
489.07668099841447
  0
LINE
  8
_0-1_
  6
CONTINUOUS
 62
    7
 10
1463.3525070129003
 20
489.07668099841447
 11
1463.6357870129004
 21
489.07668099841447
  0
LINE
  8
_0-1_
  6
CONTINUOUS
 62
    7
 10
1463.6357870129004
 20
489.07668099841447
 11
1463.6357870129004
 21
489.00338099841445
  0
LINE
  8
_0-1_
  6
CONTINUOUS
 62
    7
 10
1463.6357870129004
 20
489.00338099841445
 11
1463.6357870129004
 21
487.94999099841459
  0
LINE
  8
_0-1_
  6
CONTINUOUS
 62
    7
 10
1463.6357870129004
 20
487.94999099841459
 11
1463.6357870129004
 21
486.12668099841448
  0
LINE
  8
_0-1_
  6
CONTINUOUS
 62
    7
 10
1463.6357870129004
 20
486.12668099841448
 11
1463.6357870129004
 21
473.07668099841447
  0
LINE
  8
_0-1_
  6
CONTINUOUS
 62
    7
 10
1463.6357870129004
 20
473.07668099841447
 11
1463.6357870129004
 21
471.07668099841447
  0
LINE
  8
_0-1_
  6
CONTINUOUS
 62
    7
 10
1463.6357870129004
 20
471.07668099841447
 11
1463.6357870129004
 21
469.07668099841458
  0
LINE
  8
_0-1_
  6
CONTINUOUS
 62
    7
 10
1463.6357870129004
 20
469.07668099841458
 11
1463.6357870129004
 21
467.07668099841458
  0
LINE
  8
_0-1_
  6
CONTINUOUS
 62
    7
 10
1463.6357870129004
 20
467.07668099841458
 11
1463.6357870129004
 21
466.67668099841449
  0
LINE
  8
_0-1_
  6
CONTINUOUS
 62
    7
 10
1463.6357870129004
 20
466.67668099841449
 11
1464.6357870129004
 21
467.07668099841458
  0
LINE
  8
_0-1_
  6
CONTINUOUS
 62
    7
 10
1464.6357870129004
 20
467.07668099841458
 11
1466.6857870129003
 21
467.07668099841458
  0
LINE
  8
_0-1_
  6
CONTINUOUS
 62
    7
 10
1466.6857870129003
 20
467.07668099841458
 11
1468.7357870129003
 21
467.07668099841458
  0
LINE
  8
_0-1_
  6
CONTINUOUS
 62
    7
 10
1468.7357870129003
 20
467.07668099841458
 11
1469.7357870129003
 21
466.67668099841449
  0
LINE
  8
_0-1_
  6
CONTINUOUS
 62
    7
 10
1469.7357870129003
 20
466.67668099841449
 11
1469.7357870129003
 21
467.07668099841458
  0
LINE
  8
_0-1_
  6
CONTINUOUS
 62
    7
 10
1469.7357870129003
 20
467.07668099841458
 11
1469.7357870129003
 21
469.07668099841458
  0
LINE
  8
_0-1_
  6
CONTINUOUS
 62
    7
 10
1469.7357870129003
 20
469.07668099841458
 11
1469.7357870129003
 21
471.07668099841447
  0
LINE
  8
_0-1_
  6
CONTINUOUS
 62
    7
 10
1469.7357870129003
 20
471.07668099841447
 11
1469.7357870129003
 21
473.07668099841447
  0
LINE
  8
_0-1_
  6
CONTINUOUS
 62
    7
 10
1469.7357870129003
 20
473.07668099841447
 11
1469.7357870129003
 21
486.12668099841448
  0
LINE
  8
_0-1_
  6
CONTINUOUS
 62
    7
 10
1469.7357870129003
 20
486.12668099841448
 11
1469.7357870129003
 21
487.94999099841459
  0
LINE
  8
_0-1_
  6
CONTINUOUS
 62
    7
 10
1469.7357870129003
 20
487.94999099841459
 11
1469.7357870129003
 21
489.00338099841445
  0
LINE
  8
_0-1_
  6
CONTINUOUS
 62
    7
 10
1469.7357870129003
 20
489.00338099841445
 11
1469.7357870129003
 21
489.07668099841447
  0
LINE
  8
_0-1_
  6
CONTINUOUS
 62
    7
 10
1469.7357870129003
 20
489.07668099841447
 11
1470.0190670129004
 21
489.07668099841447
  0
LINE
  8
_0-1_
  6
CONTINUOUS
 62
    7
 10
1470.0190670129004
 20
489.07668099841447
 11
1470.0231770129003
 21
489.07668099841447
  0
ARC
  8
_0-1_
  6
CONTINUOUS
 62
    7
 10
1470.0231841975014
 20
488.47669454834499
 40
0.5999864501125412
 50
6.4294633770099309
 51
90.000686094376149
  0
ARC
  8
_0-1_
  6
CONTINUOUS
 62
    7
 10
1461.9698483948923
 20
486.12855044192508
 40
8.9804517142728101
 50
3.257819978343142
 51
15.602047459919621
  0
LINE
  8
_0-1_
  6
CONTINUOUS
 62
    7
 10
1470.9357870129003
 20
486.63890099841449
 11
1470.9357870129003
 21
486.12668099841448
  0
LINE
  8
_0-1_
  6
CONTINUOUS
 62
    7
 10
1470.9357870129003
 20
486.12668099841448
 11
1470.9357870129003
 21
484.07668099841458
  0
LINE
  8
_0-1_
  6
CONTINUOUS
 62
    7
 10
1470.9357870129003
 20
484.07668099841458
 11
1470.9357870129003
 21
473.07668099841447
  0
LINE
  8
_0-1_
  6
CONTINUOUS
 62
    7
 10
1470.9357870129003
 20
473.07668099841447
 11
1470.9357870129003
 21
471.07668099841447
  0
LINE
  8
_0-1_
  6
CONTINUOUS
 62
    7
 10
1470.9357870129003
 20
471.07668099841447
 11
1470.9357870129003
 21
469.07668099841458
  0
LINE
  8
_0-1_
  6
CONTINUOUS
 62
    7
 10
1470.9357870129003
 20
469.07668099841458
 11
1470.9357870129003
 21
467.07668099841458
  0
LINE
  8
_0-1_
  6
CONTINUOUS
 62
    7
 10
1470.9357870129003
 20
467.07668099841458
 11
1470.9357870129003
 21
465.07668099841458
  0
LINE
  8
_0-1_
  6
CONTINUOUS
 62
    7
 10
1470.9357870129003
 20
465.07668099841458
 11
1470.9357870129003
 21
454.07668099841447
  0
LINE
  8
_0-1_
  6
CONTINUOUS
 62
    7
 10
1470.9357870129003
 20
454.07668099841447
 11
1470.9357870129003
 21
452.02668099841446
  0
LINE
  8
_0-1_
  6
CONTINUOUS
 62
    7
 10
1470.9357870129003
 20
452.02668099841446
 11
1470.9357870129003
 21
451.51446099841456
  0
LINE
  8
_0-1_
  6
CONTINUOUS
 62
    7
 10
1468.4357870129003
 20
445.57668099841447
 11
1468.4357870129003
 21
449.07668099841458
  0
LINE
  8
_0-1_
  6
CONTINUOUS
 62
    7
 10
1468.4357870129003
 20
449.07668099841458
 11
1466.6857870129003
 21
449.07668099841458
  0
LINE
  8
_0-1_
  6
CONTINUOUS
 62
    7
 10
1466.6857870129003
 20
449.07668099841458
 11
1464.9357870129003
 21
449.07668099841458
  0
LINE
  8
_0-1_
  6
CONTINUOUS
 62
    7
 10
1464.9357870129003
 20
449.07668099841458
 11
1464.9357870129003
 21
445.57668099841447
  0
LINE
  8
_0-1_
  6
CONTINUOUS
 62
    7
 10
1464.9357870129003
 20
445.57668099841447
 11
1468.4357870129003
 21
445.57668099841447
  0
LINE
  8
_0-1_
  6
CONTINUOUS
 62
    7
 10
1463.6857870129003
 20
449.07668099841458
 11
1469.6857870129003
 21
449.07668099841458
  0
LINE
  8
_0-1_
  6
CONTINUOUS
 62
    7
 10
1469.6857870129003
 20
449.07668099841458
 11
1469.6857870129003
 21
451.07668099841458
  0
LINE
  8
_0-1_
  6
CONTINUOUS
 62
    7
 10
1469.6857870129003
 20
451.07668099841458
 11
1463.6857870129003
 21
451.07668099841458
  0
LINE
  8
_0-1_
  6
CONTINUOUS
 62
    7
 10
1463.6857870129003
 20
451.07668099841458
 11
1463.6857870129003
 21
449.07668099841458
  0
LINE
  8
_0-1_
  6
CONTINUOUS
 62
    7
 10
1464.6857870129003
 20
451.07668099841458
 11
1463.6857870129003
 21
451.07668099841458
  0
LINE
  8
_0-1_
  6
CONTINUOUS
 62
    7
 10
1469.6857870129003
 20
451.07668099841458
 11
1468.6857870129003
 21
451.07668099841458
  0
LINE
  8
_0-1_
  6
CONTINUOUS
 62
    7
 10
1481.3357870129004
 20
469.07668099841458
 11
1481.3357870129004
 21
449.07668099841458
  0
LINE
  8
_0-1_
  6
CONTINUOUS
 62
    7
 10
1475.2357870129003
 20
469.07668099841458
 11
1475.2357870129003
 21
449.07668099841458
  0
ARC
  8
_0-1_
  6
CONTINUOUS
 62
    7
 10
1473.5700127108834
 20
452.02478426436215
 40
8.9802861129515392
 50
344.3978382806477
 51
356.74229428108969
  0
ARC
  8
_0-1_
  6
CONTINUOUS
 62
    7
 10
1481.6231789606993
 20
449.67667330863008
 40
0.5999923102187105
 50
269.99981399644269
 51
353.57003653217111
  0
LINE
  8
_0-1_
  6
CONTINUOUS
 62
    7
 10
1481.6231770128993
 20
449.07668099841458
 11
1481.6190670129003
 21
449.07668099841458
  0
LINE
  8
_0-1_
  6
CONTINUOUS
 62
    7
 10
1481.6190670129003
 20
449.07668099841458
 11
1481.3357870129004
 21
449.07668099841458
  0
LINE
  8
_0-1_
  6
CONTINUOUS
 62
    7
 10
1481.3357870129004
 20
449.07668099841458
 11
1481.3357870129004
 21
449.1499809984146
  0
LINE
  8
_0-1_
  6
CONTINUOUS
 62
    7
 10
1481.3357870129004
 20
449.1499809984146
 11
1481.3357870129004
 21
450.20337099841447
  0
LINE
  8
_0-1_
  6
CONTINUOUS
 62
    7
 10
1481.3357870129004
 20
450.20337099841447
 11
1481.3357870129004
 21
452.02668099841446
  0
LINE
  8
_0-1_
  6
CONTINUOUS
 62
    7
 10
1481.3357870129004
 20
452.02668099841446
 11
1481.3357870129004
 21
465.07668099841458
  0
LINE
  8
_0-1_
  6
CONTINUOUS
 62
    7
 10
1481.3357870129004
 20
465.07668099841458
 11
1481.3357870129004
 21
465.4766809984145
  0
LINE
  8
_0-1_
  6
CONTINUOUS
 62
    7
 10
1481.3357870129004
 20
465.4766809984145
 11
1480.4107870129003
 21
465.07668099841458
  0
LINE
  8
_0-1_
  6
CONTINUOUS
 62
    7
 10
1480.4107870129003
 20
465.07668099841458
 11
1478.2857870129003
 21
465.07668099841458
  0
LINE
  8
_0-1_
  6
CONTINUOUS
 62
    7
 10
1478.2857870129003
 20
465.07668099841458
 11
1476.1607870129003
 21
465.07668099841458
  0
LINE
  8
_0-1_
  6
CONTINUOUS
 62
    7
 10
1476.1607870129003
 20
465.07668099841458
 11
1475.2357870129003
 21
465.4766809984145
  0
LINE
  8
_0-1_
  6
CONTINUOUS
 62
    7
 10
1475.2357870129003
 20
465.4766809984145
 11
1475.2357870129003
 21
465.07668099841458
  0
LINE
  8
_0-1_
  6
CONTINUOUS
 62
    7
 10
1475.2357870129003
 20
465.07668099841458
 11
1475.2357870129003
 21
452.02668099841446
  0
LINE
  8
_0-1_
  6
CONTINUOUS
 62
    7
 10
1475.2357870129003
 20
452.02668099841446
 11
1475.2357870129003
 21
450.20337099841447
  0
LINE
  8
_0-1_
  6
CONTINUOUS
 62
    7
 10
1475.2357870129003
 20
450.20337099841447
 11
1475.2357870129003
 21
449.1499809984146
  0
LINE
  8
_0-1_
  6
CONTINUOUS
 62
    7
 10
1475.2357870129003
 20
449.1499809984146
 11
1475.2357870129003
 21
449.07668099841458
  0
LINE
  8
_0-1_
  6
CONTINUOUS
 62
    7
 10
1475.2357870129003
 20
449.07668099841458
 11
1474.9525070129004
 21
449.07668099841458
  0
LINE
  8
_0-1_
  6
CONTINUOUS
 62
    7
 10
1474.9525070129004
 20
449.07668099841458
 11
1474.9483970129003
 21
449.07668099841458
  0
ARC
  8
_0-1_
  6
CONTINUOUS
 62
    7
 10
1474.9483898282983
 20
449.67666744848418
 40
0.5999864501125412
 50
186.42946337700999
 51
270.0006860943763
  0
ARC
  8
_0-1_
  6
CONTINUOUS
 62
    7
 10
1483.0017256309074
 20
452.02481155490397
 40
8.9804517142728261
 50
183.25781997834309
 51
195.60204745991961
  0
LINE
  8
_0-1_
  6
CONTINUOUS
 62
    7
 10
1474.0357870129003
 20
451.51446099841456
 11
1474.0357870129003
 21
452.02668099841446
  0
LINE
  8
_0-1_
  6
CONTINUOUS
 62
    7
 10
1474.0357870129003
 20
452.02668099841446
 11
1474.0357870129003
 21
454.07668099841447
  0
LINE
  8
_0-1_
  6
CONTINUOUS
 62
    7
 10
1474.0357870129003
 20
454.07668099841447
 11
1474.0357870129003
 21
465.07668099841458
  0
LINE
  8
_0-1_
  6
CONTINUOUS
 62
    7
 10
1474.0357870129003
 20
465.07668099841458
 11
1474.0357870129003
 21
467.07668099841458
  0
LINE
  8
_0-1_
  6
CONTINUOUS
 62
    7
 10
1474.0357870129003
 20
467.07668099841458
 11
1474.0357870129003
 21
469.07668099841458
  0
LINE
  8
_0-1_
  6
CONTINUOUS
 62
    7
 10
1474.0357870129003
 20
469.07668099841458
 11
1474.0357870129003
 21
471.07668099841447
  0
LINE
  8
_0-1_
  6
CONTINUOUS
 62
    7
 10
1474.0357870129003
 20
471.07668099841447
 11
1474.0357870129003
 21
473.07668099841447
  0
LINE
  8
_0-1_
  6
CONTINUOUS
 62
    7
 10
1474.0357870129003
 20
473.07668099841447
 11
1474.0357870129003
 21
484.07668099841458
  0
LINE
  8
_0-1_
  6
CONTINUOUS
 62
    7
 10
1474.0357870129003
 20
484.07668099841458
 11
1474.0357870129003
 21
486.12668099841448
  0
LINE
  8
_0-1_
  6
CONTINUOUS
 62
    7
 10
1474.0357870129003
 20
486.12668099841448
 11
1474.0357870129003
 21
486.63890099841449
  0
ARC
  8
_0-1_
  6
CONTINUOUS
 62
    7
 10
1483.0015613149164
 20
486.1285777324669
 40
8.9802861129515232
 50
164.39783828064759
 51
176.74229428108961
  0
ARC
  8
_0-1_
  6
CONTINUOUS
 62
    7
 10
1474.9483950651003
 20
488.47668868819897
 40
0.5999923102187105
 50
89.999813996442711
 51
173.57003653217108
  0
LINE
  8
_0-1_
  6
CONTINUOUS
 62
    7
 10
1474.9483970129003
 20
489.07668099841447
 11
1474.9525070129004
 21
489.07668099841447
  0
LINE
  8
_0-1_
  6
CONTINUOUS
 62
    7
 10
1474.9525070129004
 20
489.07668099841447
 11
1475.2357870129003
 21
489.07668099841447
  0
LINE
  8
_0-1_
  6
CONTINUOUS
 62
    7
 10
1475.2357870129003
 20
489.07668099841447
 11
1475.2357870129003
 21
489.00338099841445
  0
LINE
  8
_0-1_
  6
CONTINUOUS
 62
    7
 10
1475.2357870129003
 20
489.00338099841445
 11
1475.2357870129003
 21
487.94999099841459
  0
LINE
  8
_0-1_
  6
CONTINUOUS
 62
    7
 10
1475.2357870129003
 20
487.94999099841459
 11
1475.2357870129003
 21
486.12668099841448
  0
LINE
  8
_0-1_
  6
CONTINUOUS
 62
    7
 10
1475.2357870129003
 20
486.12668099841448
 11
1475.2357870129003
 21
473.07668099841447
  0
LINE
  8
_0-1_
  6
CONTINUOUS
 62
    7
 10
1475.2357870129003
 20
473.07668099841447
 11
1475.2357870129003
 21
471.07668099841447
  0
LINE
  8
_0-1_
  6
CONTINUOUS
 62
    7
 10
1475.2357870129003
 20
471.07668099841447
 11
1475.2357870129003
 21
469.07668099841458
  0
LINE
  8
_0-1_
  6
CONTINUOUS
 62
    7
 10
1475.2357870129003
 20
469.07668099841458
 11
1475.2357870129003
 21
467.07668099841458
  0
LINE
  8
_0-1_
  6
CONTINUOUS
 62
    7
 10
1475.2357870129003
 20
467.07668099841458
 11
1475.2357870129003
 21
466.67668099841449
  0
LINE
  8
_0-1_
  6
CONTINUOUS
 62
    7
 10
1475.2357870129003
 20
466.67668099841449
 11
1476.2357870129003
 21
467.07668099841458
  0
LINE
  8
_0-1_
  6
CONTINUOUS
 62
    7
 10
1476.2357870129003
 20
467.07668099841458
 11
1478.2857870129003
 21
467.07668099841458
  0
LINE
  8
_0-1_
  6
CONTINUOUS
 62
    7
 10
1478.2857870129003
 20
467.07668099841458
 11
1480.3357870129004
 21
467.07668099841458
  0
LINE
  8
_0-1_
  6
CONTINUOUS
 62
    7
 10
1480.3357870129004
 20
467.07668099841458
 11
1481.3357870129004
 21
466.67668099841449
  0
LINE
  8
_0-1_
  6
CONTINUOUS
 62
    7
 10
1481.3357870129004
 20
466.67668099841449
 11
1481.3357870129004
 21
467.07668099841458
  0
LINE
  8
_0-1_
  6
CONTINUOUS
 62
    7
 10
1481.3357870129004
 20
467.07668099841458
 11
1481.3357870129004
 21
469.07668099841458
  0
LINE
  8
_0-1_
  6
CONTINUOUS
 62
    7
 10
1481.3357870129004
 20
469.07668099841458
 11
1481.3357870129004
 21
471.07668099841447
  0
LINE
  8
_0-1_
  6
CONTINUOUS
 62
    7
 10
1481.3357870129004
 20
471.07668099841447
 11
1481.3357870129004
 21
473.07668099841447
  0
LINE
  8
_0-1_
  6
CONTINUOUS
 62
    7
 10
1481.3357870129004
 20
473.07668099841447
 11
1481.3357870129004
 21
486.12668099841448
  0
LINE
  8
_0-1_
  6
CONTINUOUS
 62
    7
 10
1481.3357870129004
 20
486.12668099841448
 11
1481.3357870129004
 21
487.94999099841459
  0
LINE
  8
_0-1_
  6
CONTINUOUS
 62
    7
 10
1481.3357870129004
 20
487.94999099841459
 11
1481.3357870129004
 21
489.00338099841445
  0
LINE
  8
_0-1_
  6
CONTINUOUS
 62
    7
 10
1481.3357870129004
 20
489.00338099841445
 11
1481.3357870129004
 21
489.07668099841447
  0
LINE
  8
_0-1_
  6
CONTINUOUS
 62
    7
 10
1481.3357870129004
 20
489.07668099841447
 11
1481.6190670129003
 21
489.07668099841447
  0
LINE
  8
_0-1_
  6
CONTINUOUS
 62
    7
 10
1481.6190670129003
 20
489.07668099841447
 11
1481.6231770128993
 21
489.07668099841447
  0
ARC
  8
_0-1_
  6
CONTINUOUS
 62
    7
 10
1481.6231841975013
 20
488.47669454834499
 40
0.5999864501125412
 50
6.4294633770099309
 51
90.000686094376149
  0
ARC
  8
_0-1_
  6
CONTINUOUS
 62
    7
 10
1473.5698483948924
 20
486.12855044192508
 40
8.9804517142728101
 50
3.257819978343142
 51
15.602047459919621
  0
LINE
  8
_0-1_
  6
CONTINUOUS
 62
    7
 10
1482.5357870129003
 20
486.63890099841449
 11
1482.5357870129003
 21
486.12668099841448
  0
LINE
  8
_0-1_
  6
CONTINUOUS
 62
    7
 10
1482.5357870129003
 20
486.12668099841448
 11
1482.5357870129003
 21
484.07668099841458
  0
LINE
  8
_0-1_
  6
CONTINUOUS
 62
    7
 10
1482.5357870129003
 20
484.07668099841458
 11
1482.5357870129003
 21
473.07668099841447
  0
LINE
  8
_0-1_
  6
CONTINUOUS
 62
    7
 10
1482.5357870129003
 20
473.07668099841447
 11
1482.5357870129003
 21
471.07668099841447
  0
LINE
  8
_0-1_
  6
CONTINUOUS
 62
    7
 10
1482.5357870129003
 20
471.07668099841447
 11
1482.5357870129003
 21
469.07668099841458
  0
LINE
  8
_0-1_
  6
CONTINUOUS
 62
    7
 10
1482.5357870129003
 20
469.07668099841458
 11
1482.5357870129003
 21
467.07668099841458
  0
LINE
  8
_0-1_
  6
CONTINUOUS
 62
    7
 10
1482.5357870129003
 20
467.07668099841458
 11
1482.5357870129003
 21
465.07668099841458
  0
LINE
  8
_0-1_
  6
CONTINUOUS
 62
    7
 10
1482.5357870129003
 20
465.07668099841458
 11
1482.5357870129003
 21
454.07668099841447
  0
LINE
  8
_0-1_
  6
CONTINUOUS
 62
    7
 10
1482.5357870129003
 20
454.07668099841447
 11
1482.5357870129003
 21
452.02668099841446
  0
LINE
  8
_0-1_
  6
CONTINUOUS
 62
    7
 10
1482.5357870129003
 20
452.02668099841446
 11
1482.5357870129003
 21
451.51446099841456
  0
LINE
  8
_0-1_
  6
CONTINUOUS
 62
    7
 10
1480.0357870129003
 20
445.57668099841447
 11
1480.0357870129003
 21
449.07668099841458
  0
LINE
  8
_0-1_
  6
CONTINUOUS
 62
    7
 10
1480.0357870129003
 20
449.07668099841458
 11
1478.2857870129003
 21
449.07668099841458
  0
LINE
  8
_0-1_
  6
CONTINUOUS
 62
    7
 10
1478.2857870129003
 20
449.07668099841458
 11
1476.5357870129003
 21
449.07668099841458
  0
LINE
  8
_0-1_
  6
CONTINUOUS
 62
    7
 10
1476.5357870129003
 20
449.07668099841458
 11
1476.5357870129003
 21
445.57668099841447
  0
LINE
  8
_0-1_
  6
CONTINUOUS
 62
    7
 10
1476.5357870129003
 20
445.57668099841447
 11
1480.0357870129003
 21
445.57668099841447
  0
LINE
  8
_0-1_
  6
CONTINUOUS
 62
    7
 10
1475.2857870129003
 20
449.07668099841458
 11
1481.2857870129003
 21
449.07668099841458
  0
LINE
  8
_0-1_
  6
CONTINUOUS
 62
    7
 10
1481.2857870129003
 20
449.07668099841458
 11
1481.2857870129003
 21
451.07668099841458
  0
LINE
  8
_0-1_
  6
CONTINUOUS
 62
    7
 10
1481.2857870129003
 20
451.07668099841458
 11
1475.2857870129003
 21
451.07668099841458
  0
LINE
  8
_0-1_
  6
CONTINUOUS
 62
    7
 10
1475.2857870129003
 20
451.07668099841458
 11
1475.2857870129003
 21
449.07668099841458
  0
LINE
  8
_0-1_
  6
CONTINUOUS
 62
    7
 10
1476.2857870129003
 20
451.07668099841458
 11
1475.2857870129003
 21
451.07668099841458
  0
LINE
  8
_0-1_
  6
CONTINUOUS
 62
    7
 10
1481.2857870129003
 20
451.07668099841458
 11
1480.2857870129003
 21
451.07668099841458
  0
POINT
  8
_0-4_
 62
    7
 10
1457.5857870129004
 20
690.87668099841482
  0
POINT
  8
_0-4_
 62
    7
 10
1464.1857870129003
 20
690.87668099841482
  0
LINE
  8
_0-4_
  6
CONTINUOUS
 62
    7
 10
1457.5857870129004
 20
690.87668099841482
 11
1457.5857870129004
 21
665.87668099841471
  0
LINE
  8
_0-4_
  6
CONTINUOUS
 62
    7
 10
1464.1857870129003
 20
690.87668099841482
 11
1464.1857870129003
 21
665.87668099841471
  0
LINE
  8
_0-4_
  6
CONTINUOUS
 62
    7
 10
1457.5857870129004
 20
690.87668099841482
 11
1464.1857870129003
 21
690.87668099841482
  0
TEXT
  8
_0-4_
 62
    7
 10
1447.8857870129004
 20
690.87668099841482
 40
16
 41
1
 50
0
  1
6.6
  0
POINT
  8
_0-4_
 62
    7
 10
1469.1857870129003
 20
740.87668099841482
  0
POINT
  8
_0-4_
 62
    7
 10
1475.7857870129003
 20
740.87668099841482
  0
LINE
  8
_0-4_
  6
CONTINUOUS
 62
    7
 10
1469.1857870129003
 20
740.87668099841482
 11
1469.1857870129003
 21
715.87668099841482
  0
LINE
  8
_0-4_
  6
CONTINUOUS
 62
    7
 10
1475.7857870129003
 20
740.87668099841482
 11
1475.7857870129003
 21
715.87668099841482
  0
LINE
  8
_0-4_
  6
CONTINUOUS
 62
    7
 10
1469.1857870129003
 20
740.87668099841482
 11
1475.7857870129003
 21
740.87668099841482
  0
TEXT
  8
_0-4_
 62
    7
 10
1459.4857870129003
 20
740.87668099841482
 40
16
 41
1
 50
0
  1
6.6
  0
POINT
  8
_0-4_
 62
    7
 10
1452.5857870129004
 20
820.87668099841494
  0
POINT
  8
_0-4_
 62
    7
 10
1457.5857870129004
 20
820.87668099841494
  0
LINE
  8
_0-4_
  6
CONTINUOUS
 62
    7
 10
1452.5857870129004
 20
820.87668099841494
 11
1452.5857870129004
 21
795.87668099841494
  0
LINE
  8
_0-4_
  6
CONTINUOUS
 62
    7
 10
1457.5857870129004
 20
820.87668099841494
 11
1457.5857870129004
 21
795.87668099841494
  0
LINE
  8
_0-4_
  6
CONTINUOUS
 62
    7
 10
1452.5857870129004
 20
820.87668099841494
 11
1457.5857870129004
 21
820.87668099841494
  0
TEXT
  8
_0-4_
 62
    7
 10
1442.0857870129004
 20
820.87668099841494
 40
16
 41
1
 50
0
  1
5.0
  0
POINT
  8
_0-4_
 62
    7
 10
1464.1857870129003
 20
870.87668099841494
  0
POINT
  8
_0-4_
 62
    7
 10
1469.1857870129003
 20
870.87668099841494
  0
LINE
  8
_0-4_
  6
CONTINUOUS
 62
    7
 10
1464.1857870129003
 20
870.87668099841494
 11
1464.1857870129003
 21
845.87668099841494
  0
LINE
  8
_0-4_
  6
CONTINUOUS
 62
    7
 10
1469.1857870129003
 20
870.87668099841494
 11
1469.1857870129003
 21
845.87668099841494
  0
LINE
  8
_0-4_
  6
CONTINUOUS
 62
    7
 10
1464.1857870129003
 20
870.87668099841494
 11
1469.1857870129003
 21
870.87668099841494
  0
TEXT
  8
_0-4_
 62
    7
 10
1453.6857870129003
 20
870.87668099841494
 40
16
 41
1
 50
0
  1
5.0
  0
POINT
  8
_0-4_
 62
    7
 10
1475.7857870129003
 20
920.87668099841482
  0
POINT
  8
_0-4_
 62
    7
 10
1480.7857870129003
 20
920.87668099841482
  0
LINE
  8
_0-4_
  6
CONTINUOUS
 62
    7
 10
1475.7857870129003
 20
920.87668099841482
 11
1475.7857870129003
 21
895.87668099841482
  0
LINE
  8
_0-4_
  6
CONTINUOUS
 62
    7
 10
1480.7857870129003
 20
920.87668099841482
 11
1480.7857870129003
 21
895.87668099841482
  0
LINE
  8
_0-4_
  6
CONTINUOUS
 62
    7
 10
1475.7857870129003
 20
920.87668099841482
 11
1480.7857870129003
 21
920.87668099841482
  0
TEXT
  8
_0-4_
 62
    7
 10
1465.2857870129003
 20
920.87668099841482
 40
16
 41
1
 50
0
  1
5.0
  0
POINT
  8
_0-4_
 62
    7
 10
1541.6857870129003
 20
451.37668099841448
  0
POINT
  8
_0-4_
 62
    7
 10
1541.6857870129003
 20
444.07668099841447
  0
LINE
  8
_0-4_
  6
CONTINUOUS
 62
    7
 10
1541.6857870129003
 20
451.37668099841448
 11
1531.6857870129003
 21
451.37668099841448
  0
LINE
  8
_0-4_
  6
CONTINUOUS
 62
    7
 10
1541.6857870129003
 20
444.07668099841447
 11
1531.6857870129003
 21
444.07668099841447
  0
LINE
  8
_0-4_
  6
CONTINUOUS
 62
    7
 10
1541.6857870129003
 20
451.37668099841448
 11
1541.6857870129003
 21
444.07668099841447
  0
TEXT
  8
_0-4_
 62
    7
 10
1541.6857870129003
 20
434.7266809984145
 40
16
 41
1
 50
90
  1
7.3
  0
POINT
  8
_0-4_
 62
    7
 10
1449.0857870129004
 20
491.37668099841448
  0
POINT
  8
_0-4_
 62
    7
 10
1484.2857870129003
 20
491.37668099841448
  0
LINE
  8
_0-4_
  6
CONTINUOUS
 62
    7
 10
1449.0857870129004
 20
491.37668099841448
 11
1449.0857870129004
 21
471.37668099841448
  0
LINE
  8
_0-4_
  6
CONTINUOUS
 62
    7
 10
1484.2857870129003
 20
491.37668099841448
 11
1484.2857870129003
 21
471.37668099841448
  0
LINE
  8
_0-4_
  6
CONTINUOUS
 62
    7
 10
1449.0857870129004
 20
491.37668099841448
 11
1484.2857870129003
 21
491.37668099841448
  0
TEXT
  8
_0-4_
 62
    7
 10
1449.1857870129003
 20
491.37668099841448
 40
16
 41
1
 50
0
  1
35.2
  0
POINT
  8
_0-4_
 62
    7
 10
1421.6857870129003
 20
451.37668099841448
  0
POINT
  8
_0-4_
 62
    7
 10
1421.6857870129003
 20
489.07668099841447
  0
LINE
  8
_0-4_
  6
CONTINUOUS
 62
    7
 10
1421.6857870129003
 20
451.37668099841448
 11
1431.6857870129003
 21
451.37668099841448
  0
LINE
  8
_0-4_
  6
CONTINUOUS
 62
    7
 10
1421.6857870129003
 20
489.07668099841447
 11
1431.6857870129003
 21
489.07668099841447
  0
LINE
  8
_0-4_
  6
CONTINUOUS
 62
    7
 10
1421.6857870129003
 20
451.37668099841448
 11
1421.6857870129003
 21
489.07668099841447
  0
TEXT
  8
_0-4_
 62
    7
 10
1421.6857870129003
 20
452.7266809984145
 40
16
 41
1
 50
90
  1
37.7
  0
POINT
  8
_0-4_
 62
    7
 10
1541.6857870129003
 20
1100.1766809984151
  0
POINT
  8
_0-4_
 62
    7
 10
1541.6857870129003
 20
1085.3766809984149
  0
LINE
  8
_0-4_
  6
CONTINUOUS
 62
    7
 10
1541.6857870129003
 20
1100.1766809984151
 11
1531.6857870129003
 21
1100.1766809984151
  0
LINE
  8
_0-4_
  6
CONTINUOUS
 62
    7
 10
1541.6857870129003
 20
1085.3766809984149
 11
1531.6857870129003
 21
1085.3766809984149
  0
LINE
  8
_0-4_
  6
CONTINUOUS
 62
    7
 10
1541.6857870129003
 20
1100.1766809984151
 11
1541.6857870129003
 21
1085.3766809984149
  0
TEXT
  8
_0-4_
 62
    7
 10
1541.6857870129003
 20
1075.276680998415
 40
16
 41
1
 50
90
  1
14.8
  0
POINT
  8
_0-4_
 62
    7
 10
1449.8857870129004
 20
1065.3766809984149
  0
POINT
  8
_0-4_
 62
    7
 10
1483.4857870129003
 20
1065.3766809984149
  0
LINE
  8
_0-4_
  6
CONTINUOUS
 62
    7
 10
1449.8857870129004
 20
1065.3766809984149
 11
1449.8857870129004
 21
1075.3766809984149
  0
LINE
  8
_0-4_
  6
CONTINUOUS
 62
    7
 10
1483.4857870129003
 20
1065.3766809984149
 11
1483.4857870129003
 21
1075.3766809984149
  0
LINE
  8
_0-4_
  6
CONTINUOUS
 62
    7
 10
1449.8857870129004
 20
1065.3766809984149
 11
1483.4857870129003
 21
1065.3766809984149
  0
TEXT
  8
_0-4_
 62
    7
 10
1449.1857870129003
 20
1065.3766809984149
 40
16
 41
1
 50
0
  1
33.6
  0
LINE
  8
_0-1_
  6
CONTINUOUS
 62
    7
 10
402.51912034623387
 20
452.57668099841458
 11
221.68578701290039
 21
452.57668099841458
  0
LINE
  8
_0-1_
  6
CONTINUOUS
 62
    7
 10
769.18578701290027
 20
452.57668099841458
 11
407.51912034623387
 21
452.57668099841458
  0
LINE
  8
_0-1_
  6
CONTINUOUS
 62
    7
 10
1135.8524536795673
 20
452.57668099841458
 11
774.18578701290039
 21
452.57668099841458
  0
LINE
  8
_0-1_
  6
CONTINUOUS
 62
    7
 10
1321.6857870129003
 20
452.57668099841458
 11
1140.8524536795673
 21
452.57668099841458
  0
LINE
  8
_0-1_
  6
CONTINUOUS
 62
    7
 10
935.30771935265738
 20
489.07668099841447
 11
934.54814322899244
 21
489.07668099841447
  0
LINE
  8
_0-1_
  6
CONTINUOUS
 62
    7
 10
222.88578701290043
 20
452.57668099841458
 11
222.88578701290043
 21
489.07668099841447
  0
LINE
  8
_0-1_
  6
CONTINUOUS
 62
    7
 10
567.1524536795672
 20
452.57668099841458
 11
567.1524536795672
 21
489.07668099841447
  0
LINE
  8
_0-1_
  6
CONTINUOUS
 62
    7
 10
568.35245367956713
 20
452.57668099841458
 11
568.35245367956713
 21
489.07668099841447
  0
LINE
  8
_0-1_
  6
CONTINUOUS
 62
    7
 10
933.81912034623337
 20
452.57668099841458
 11
933.81912034623337
 21
489.07668099841447
  0
LINE
  8
_0-1_
  6
CONTINUOUS
 62
    7
 10
935.01912034623342
 20
452.57668099841458
 11
935.01912034623342
 21
489.07668099841447
  0
LINE
  8
_0-1_
  6
CONTINUOUS
 62
    7
 10
1320.4857870129003
 20
489.07668099841447
 11
1320.4857870129003
 21
452.57668099841458
  0
LINE
  8
_0-1_
  6
CONTINUOUS
 62
    7
 10
1321.6857870129003
 20
489.07668099841447
 11
1140.8524536795673
 21
489.07668099841447
  0
LINE
  8
_0-1_
  6
CONTINUOUS
 62
    7
 10
1135.8524536795673
 20
489.07668099841447
 11
935.30771935265738
 21
489.07668099841447
  0
LINE
  8
_0-1_
  6
CONTINUOUS
 62
    7
 10
934.54814322899244
 20
489.07668099841447
 11
774.18578701290039
 21
489.07668099841447
  0
LINE
  8
_0-1_
  6
CONTINUOUS
 62
    7
 10
769.18578701290027
 20
489.07668099841447
 11
407.5191203462337
 21
489.07668099841447
  0
LINE
  8
_0-1_
  6
CONTINUOUS
 62
    7
 10
402.5191203462337
 20
489.07668099841447
 11
221.68578701290039
 21
489.07668099841447
  0
LINE
  8
_0-1_
  6
CONTINUOUS
 62
    7
 10
1321.6857870129003
 20
275.77668099841525
 11
1140.8524536795673
 21
275.77668099841525
  0
LINE
  8
_0-1_
  6
CONTINUOUS
 62
    7
 10
1321.6857870129003
 20
272.77668099841525
 11
1140.8524536795673
 21
272.77668099841525
  0
LINE
  8
_0-1_
  6
CONTINUOUS
 62
    7
 10
1321.6857870129003
 20
239.9766809984153
 11
1140.8524536795673
 21
239.9766809984153
  0
LINE
  8
_0-1_
  6
CONTINUOUS
 62
    7
 10
1321.6857870129003
 20
236.9766809984153
 11
1140.8524536795673
 21
236.9766809984153
  0
LINE
  8
_0-1_
  6
CONTINUOUS
 62
    7
 10
1135.8524536795673
 20
275.77668099841525
 11
774.18578701290039
 21
275.77668099841525
  0
LINE
  8
_0-1_
  6
CONTINUOUS
 62
    7
 10
1135.8524536795673
 20
272.77668099841525
 11
774.18578701290039
 21
272.77668099841525
  0
LINE
  8
_0-1_
  6
CONTINUOUS
 62
    7
 10
769.18578701290027
 20
275.77668099841525
 11
407.5191203462337
 21
275.77668099841525
  0
LINE
  8
_0-1_
  6
CONTINUOUS
 62
    7
 10
402.5191203462337
 20
275.77668099841525
 11
221.68578701290039
 21
275.77668099841525
  0
LINE
  8
_0-1_
  6
CONTINUOUS
 62
    7
 10
769.18578701290027
 20
272.77668099841525
 11
407.5191203462337
 21
272.77668099841525
  0
LINE
  8
_0-1_
  6
CONTINUOUS
 62
    7
 10
402.5191203462337
 20
272.77668099841525
 11
221.68578701290039
 21
272.77668099841525
  0
LINE
  8
_0-1_
  6
CONTINUOUS
 62
    7
 10
402.5191203462337
 20
239.9766809984153
 11
221.68578701290039
 21
239.9766809984153
  0
LINE
  8
_0-1_
  6
CONTINUOUS
 62
    7
 10
402.5191203462337
 20
236.9766809984153
 11
221.68578701290039
 21
236.9766809984153
  0
LINE
  8
_0-f_
  6
CONTINUOUS
 62
    7
 10
814.43689128229129
 20
-168.63282708779263
 11
823.38238258255853
 21
-168.63282708779263
  0
LINE
  8
_0-1_
  6
CONTINUOUS
 62
    7
 10
222.88578701290043
 20
272.2266809984153
 11
222.88578701290043
 21
263.7266809984153
  0
LINE
  8
_0-1_
  6
CONTINUOUS
 62
    7
 10
222.88578701290043
 20
263.7266809984153
 11
221.68578701290039
 21
263.7266809984153
  0
LINE
  8
_0-1_
  6
CONTINUOUS
 62
    7
 10
221.68578701290039
 20
263.7266809984153
 11
221.68578701290039
 21
272.2266809984153
  0
LINE
  8
_0-1_
  6
CONTINUOUS
 62
    7
 10
221.68578701290039
 20
272.2266809984153
 11
222.88578701290043
 21
272.2266809984153
  0
LINE
  8
_0-1_
  6
CONTINUOUS
 62
    7
 10
222.88578701290043
 20
272.2266809984153
 11
222.88578701290043
 21
263.7266809984153
  0
LINE
  8
_0-1_
  6
CONTINUOUS
 62
    7
 10
1320.4857870129003
 20
240.52668099841514
 11
1320.4857870129003
 21
249.02668099841514
  0
LINE
  8
_0-1_
  6
CONTINUOUS
 62
    7
 10
1320.4857870129003
 20
240.52668099841514
 11
1321.6857870129003
 21
240.52668099841514
  0
LINE
  8
_0-1_
  6
CONTINUOUS
 62
    7
 10
1321.6857870129003
 20
240.52668099841514
 11
1321.6857870129003
 21
249.02668099841514
  0
LINE
  8
_0-1_
  6
CONTINUOUS
 62
    7
 10
1321.6857870129003
 20
249.02668099841514
 11
1320.4857870129003
 21
249.02668099841514
  0
LINE
  8
_0-1_
  6
CONTINUOUS
 62
    7
 10
1320.4857870129003
 20
249.02668099841514
 11
1320.4857870129003
 21
240.52668099841514
  0
LINE
  8
_0-1_
  6
CONTINUOUS
 62
    7
 10
1140.8524536795673
 20
240.52668099841525
 11
1320.4857870129003
 21
240.52668099841514
  0
LINE
  8
_0-1_
  6
CONTINUOUS
 62
    7
 10
1140.8524536795673
 20
241.7266809984153
 11
1320.4857870129003
 21
241.72668099841519
  0
LINE
  8
_0-1_
  6
CONTINUOUS
 62
    7
 10
1320.4857870129003
 20
247.82668099841509
 11
1140.8524536795673
 21
247.82668099841521
  0
LINE
  8
_0-1_
  6
CONTINUOUS
 62
    7
 10
1320.4857870129003
 20
249.02668099841514
 11
1140.8524536795673
 21
249.02668099841525
  0
LINE
  8
_0-1_
  6
CONTINUOUS
 62
    7
 10
975.01912034623342
 20
252.12668099841522
 11
975.01912034623342
 21
260.62668099841522
  0
LINE
  8
_0-1_
  6
CONTINUOUS
 62
    7
 10
975.01912034623342
 20
252.12668099841522
 11
976.21912034623346
 21
252.12668099841522
  0
LINE
  8
_0-1_
  6
CONTINUOUS
 62
    7
 10
976.21912034623346
 20
252.12668099841522
 11
976.21912034623346
 21
260.62668099841522
  0
LINE
  8
_0-1_
  6
CONTINUOUS
 62
    7
 10
976.21912034623346
 20
260.62668099841522
 11
975.01912034623342
 21
260.62668099841522
  0
LINE
  8
_0-1_
  6
CONTINUOUS
 62
    7
 10
975.01912034623342
 20
260.62668099841522
 11
975.01912034623342
 21
252.12668099841522
  0
LINE
  8
_0-1_
  6
CONTINUOUS
 62
    7
 10
933.81912034623337
 20
249.02668099841525
 11
933.81912034623337
 21
240.52668099841525
  0
LINE
  8
_0-1_
  6
CONTINUOUS
 62
    7
 10
933.81912034623337
 20
240.52668099841525
 11
932.61912034623344
 21
240.52668099841525
  0
LINE
  8
_0-1_
  6
CONTINUOUS
 62
    7
 10
932.61912034623344
 20
240.52668099841525
 11
932.61912034623344
 21
249.02668099841525
  0
LINE
  8
_0-1_
  6
CONTINUOUS
 62
    7
 10
932.61912034623344
 20
249.02668099841525
 11
933.81912034623337
 21
249.02668099841525
  0
LINE
  8
_0-1_
  6
CONTINUOUS
 62
    7
 10
933.81912034623337
 20
249.02668099841525
 11
933.81912034623337
 21
240.52668099841525
  0
LINE
  8
_0-1_
  6
CONTINUOUS
 62
    7
 10
933.81912034623337
 20
240.52668099841525
 11
1135.8524536795673
 21
240.52668099841525
  0
LINE
  8
_0-1_
  6
CONTINUOUS
 62
    7
 10
933.81912034623337
 20
241.7266809984153
 11
1135.8524536795673
 21
241.7266809984153
  0
LINE
  8
_0-1_
  6
CONTINUOUS
 62
    7
 10
1135.8524536795673
 20
247.82668099841521
 11
933.81912034623337
 21
247.82668099841521
  0
LINE
  8
_0-1_
  6
CONTINUOUS
 62
    7
 10
1135.8524536795673
 20
249.02668099841525
 11
933.81912034623337
 21
249.02668099841525
  0
LINE
  8
_0-1_
  6
CONTINUOUS
 62
    7
 10
774.18578701290039
 20
252.12668099841522
 11
975.01912034623342
 21
252.12668099841522
  0
LINE
  8
_0-1_
  6
CONTINUOUS
 62
    7
 10
774.18578701290039
 20
253.32668099841532
 11
975.01912034623342
 21
253.32668099841532
  0
LINE
  8
_0-1_
  6
CONTINUOUS
 62
    7
 10
975.01912034623342
 20
259.42668099841517
 11
774.18578701290039
 21
259.42668099841517
  0
LINE
  8
_0-1_
  6
CONTINUOUS
 62
    7
 10
975.01912034623342
 20
260.62668099841522
 11
774.18578701290039
 21
260.62668099841522
  0
LINE
  8
_0-1_
  6
CONTINUOUS
 62
    7
 10
567.1524536795672
 20
260.62668099841528
 11
567.1524536795672
 21
252.12668099841528
  0
LINE
  8
_0-1_
  6
CONTINUOUS
 62
    7
 10
567.1524536795672
 20
252.12668099841528
 11
565.95245367956715
 21
252.12668099841528
  0
LINE
  8
_0-1_
  6
CONTINUOUS
 62
    7
 10
565.95245367956715
 20
252.12668099841528
 11
565.95245367956715
 21
260.62668099841528
  0
LINE
  8
_0-1_
  6
CONTINUOUS
 62
    7
 10
565.95245367956715
 20
260.62668099841528
 11
567.1524536795672
 21
260.62668099841528
  0
LINE
  8
_0-1_
  6
CONTINUOUS
 62
    7
 10
567.1524536795672
 20
260.62668099841528
 11
567.1524536795672
 21
252.12668099841528
  0
LINE
  8
_0-1_
  6
CONTINUOUS
 62
    7
 10
567.1524536795672
 20
252.12668099841528
 11
769.18578701290027
 21
252.12668099841522
  0
LINE
  8
_0-1_
  6
CONTINUOUS
 62
    7
 10
567.1524536795672
 20
253.32668099841532
 11
769.18578701290027
 21
253.32668099841532
  0
LINE
  8
_0-1_
  6
CONTINUOUS
 62
    7
 10
769.18578701290027
 20
259.42668099841517
 11
567.1524536795672
 21
259.42668099841523
  0
LINE
  8
_0-1_
  6
CONTINUOUS
 62
    7
 10
769.18578701290027
 20
260.62668099841522
 11
567.1524536795672
 21
260.62668099841528
  0
LINE
  8
_0-1_
  6
CONTINUOUS
 62
    7
 10
608.35245367956713
 20
263.72668099841524
 11
608.35245367956713
 21
272.22668099841519
  0
LINE
  8
_0-1_
  6
CONTINUOUS
 62
    7
 10
608.35245367956713
 20
263.72668099841524
 11
609.55245367956695
 21
263.72668099841524
  0
LINE
  8
_0-1_
  6
CONTINUOUS
 62
    7
 10
609.55245367956695
 20
263.72668099841524
 11
609.55245367956695
 21
272.22668099841519
  0
LINE
  8
_0-1_
  6
CONTINUOUS
 62
    7
 10
609.55245367956695
 20
272.22668099841519
 11
608.35245367956713
 21
272.22668099841519
  0
LINE
  8
_0-1_
  6
CONTINUOUS
 62
    7
 10
608.35245367956713
 20
272.22668099841519
 11
608.35245367956713
 21
263.72668099841524
  0
LINE
  8
_0-1_
  6
CONTINUOUS
 62
    7
 10
222.88578701290043
 20
263.7266809984153
 11
402.5191203462337
 21
263.72668099841524
  0
LINE
  8
_0-1_
  6
CONTINUOUS
 62
    7
 10
222.88578701290043
 20
264.92668099841534
 11
402.5191203462337
 21
264.92668099841523
  0
LINE
  8
_0-1_
  6
CONTINUOUS
 62
    7
 10
402.5191203462337
 20
271.0266809984152
 11
222.88578701290043
 21
271.0266809984152
  0
LINE
  8
_0-1_
  6
CONTINUOUS
 62
    7
 10
402.5191203462337
 20
272.22668099841519
 11
222.88578701290043
 21
272.2266809984153
  0
LINE
  8
_0-1_
  6
CONTINUOUS
 62
    7
 10
407.5191203462337
 20
263.72668099841524
 11
608.35245367956713
 21
263.72668099841524
  0
LINE
  8
_0-1_
  6
CONTINUOUS
 62
    7
 10
407.5191203462337
 20
264.92668099841523
 11
608.35245367956713
 21
264.92668099841523
  0
LINE
  8
_0-1_
  6
CONTINUOUS
 62
    7
 10
608.35245367956713
 20
271.0266809984152
 11
407.5191203462337
 21
271.0266809984152
  0
LINE
  8
_0-1_
  6
CONTINUOUS
 62
    7
 10
608.35245367956713
 20
272.22668099841519
 11
407.5191203462337
 21
272.22668099841519
  0
LINE
  8
_0-1_
  6
CONTINUOUS
 62
    7
 10
1321.6857870129003
 20
1084.1766809984151
 11
1140.8524536795673
 21
1084.1766809984151
  0
LINE
  8
_0-1_
  6
CONTINUOUS
 62
    7
 10
1135.8524536795673
 20
1084.1766809984151
 11
774.18578701290039
 21
1084.1766809984151
  0
LINE
  8
_0-1_
  6
CONTINUOUS
 62
    7
 10
769.18578701290027
 20
1084.1766809984151
 11
407.5191203462337
 21
1084.1766809984151
  0
LINE
  8
_0-1_
  6
CONTINUOUS
 62
    7
 10
402.5191203462337
 20
1084.1766809984151
 11
221.68578701290039
 21
1084.1766809984151
  0
TEXT
  8
_0-0_
 62
    7
 10
1410.6857870129003
 20
1225.3766809984144
 40
10
 41
1
 50
0
  1
縦断面図
  0
TEXT
  8
_0-0_
 62
    7
 10
191.68578701290039
 20
393.37668099841448
 40
10
 41
1
 50
0
  1
正面図
  0
TEXT
  8
_0-0_
 62
    7
 10
-48.314212987099608
 20
1325.3766809984153
 40
10
 41
1
 50
0
  1
01641W-01629W-5
  0
TEXT
  8
_0-0_
 62
    7
 10
-48.314212987099608
 20
1125.3766809984153
 40
10
 41
1
 50
0
  1
999-01629
  0
TEXT
  8
_0-0_
 62
    7
 10
-48.314212987099608
 20
925.37668099841528
 40
10
 41
1
 50
0
  1
999-01641
  0
TEXT
  8
_0-0_
 62
    7
 10
51.685787012900391
 20
725.37668099841528
 40
10
 41
1
 50
0
  1
999-02348
  0
LINE
  8
_0-1_
  6
CONTINUOUS
 62
    7
 10
1135.8524536795673
 20
236.9766809984153
 11
964.11912034623344
 21
236.9766809984153
  0
LINE
  8
_0-1_
  6
CONTINUOUS
 62
    7
 10
945.91912034623339
 20
236.9766809984153
 11
774.18578701290039
 21
236.9766809984153
  0
LINE
  8
_0-1_
  6
CONTINUOUS
 62
    7
 10
1135.8524536795673
 20
239.9766809984153
 11
964.11912034623344
 21
239.9766809984153
  0
LINE
  8
_0-1_
  6
CONTINUOUS
 62
    7
 10
945.91912034623339
 20
239.9766809984153
 11
774.18578701290039
 21
239.9766809984153
  0
LINE
  8
_0-1_
  6
CONTINUOUS
 62
    7
 10
769.18578701290027
 20
236.9766809984153
 11
597.41238805235127
 21
236.9766809984153
  0
LINE
  8
_0-1_
  6
CONTINUOUS
 62
    7
 10
579.29251930678299
 20
236.9766809984153
 11
407.5191203462337
 21
236.9766809984153
  0
LINE
  8
_0-1_
  6
CONTINUOUS
 62
    7
 10
769.18578701290027
 20
239.9766809984153
 11
597.45245367956715
 21
239.9766809984153
  0
LINE
  8
_0-1_
  6
CONTINUOUS
 62
    7
 10
579.25245367956699
 20
239.9766809984153
 11
407.5191203462337
 21
239.9766809984153
  0
LINE
  8
_0-1_
  6
CONTINUOUS
 62
    7
 10
1426.3357870129002
 20
464.9766809984145
 11
1426.3357870129002
 21
480.17668099841455
  0
CIRCLE
  8
_0-1_
  6
CONTINUOUS
 62
    7
 10
955.01912034623342
 20
472.57668099841453
 40
9.0999999999999996
  0
CIRCLE
  8
_0-1_
  6
CONTINUOUS
 62
    7
 10
955.01912034623342
 20
472.57668099841453
 40
7.5999999999999978
  0
LINE
  8
_0-1_
  6
CONTINUOUS
 62
    7
 10
957.01912034623342
 20
472.9766809984145
 11
957.01912034623342
 21
473.9766809984145
  0
LINE
  8
_0-1_
  6
CONTINUOUS
 62
    7
 10
957.01912034623342
 20
473.9766809984145
 11
953.01912034623342
 21
473.9766809984145
  0
LINE
  8
_0-1_
  6
CONTINUOUS
 62
    7
 10
953.01912034623342
 20
473.9766809984145
 11
953.01912034623342
 21
472.9766809984145
  0
LINE
  8
_0-1_
  6
CONTINUOUS
 62
    7
 10
953.01912034623342
 20
472.9766809984145
 11
953.01912034623342
 21
465.24468099841453
  0
ARC
  8
_0-1_
  6
CONTINUOUS
 62
    7
 10
955.01911894438842
 20
472.57335710404879
 40
7.5966761056341427
 50
254.73564928225221
 51
270.00001057301938
  0
ARC
  8
_0-1_
  6
CONTINUOUS
 62
    7
 10
955.01921249615065
 20
472.57267987962825
 40
7.5959988817725987
 50
269.9993049233642
 51
285.26503522136408
  0
LINE
  8
_0-1_
  6
CONTINUOUS
 62
    7
 10
957.01912034623342
 20
465.24468099841453
 11
957.01912034623342
 21
472.9766809984145
  0
LINE
  8
_0-1_
  6
CONTINUOUS
 62
    7
 10
954.01912034623342
 20
473.9766809984145
 11
954.01912034623342
 21
466.9766809984145
  0
LINE
  8
_0-1_
  6
CONTINUOUS
 62
    7
 10
956.01912034623342
 20
473.9766809984145
 11
956.01912034623342
 21
466.9766809984145
  0
LINE
  8
_0-1_
  6
CONTINUOUS
 62
    7
 10
957.01912034623342
 20
466.9766809984145
 11
953.01912034623342
 21
466.9766809984145
  0
CIRCLE
  8
_0-1_
  6
CONTINUOUS
 62
    7
 10
588.35245367956713
 20
472.57668099841453
 40
9.0999999999999996
  0
CIRCLE
  8
_0-1_
  6
CONTINUOUS
 62
    7
 10
588.35245367956713
 20
472.57668099841453
 40
7.5999999999999978
  0
LINE
  8
_0-1_
  6
CONTINUOUS
 62
    7
 10
590.35245367956713
 20
472.9766809984145
 11
590.35245367956713
 21
473.9766809984145
  0
LINE
  8
_0-1_
  6
CONTINUOUS
 62
    7
 10
590.35245367956713
 20
473.9766809984145
 11
586.35245367956713
 21
473.9766809984145
  0
LINE
  8
_0-1_
  6
CONTINUOUS
 62
    7
 10
586.35245367956713
 20
473.9766809984145
 11
586.35245367956713
 21
472.9766809984145
  0
LINE
  8
_0-1_
  6
CONTINUOUS
 62
    7
 10
586.35245367956713
 20
472.9766809984145
 11
586.35245367956713
 21
465.24468099841453
  0
ARC
  8
_0-1_
  6
CONTINUOUS
 62
    7
 10
588.35245227772213
 20
472.57335710404879
 40
7.5966761056341427
 50
254.73564928225221
 51
270.00001057301938
  0
ARC
  8
_0-1_
  6
CONTINUOUS
 62
    7
 10
588.35254582948437
 20
472.57267987962825
 40
7.5959988817725987
 50
269.9993049233642
 51
285.26503522136408
  0
LINE
  8
_0-1_
  6
CONTINUOUS
 62
    7
 10
590.35245367956713
 20
465.24468099841453
 11
590.35245367956713
 21
472.9766809984145
  0
LINE
  8
_0-1_
  6
CONTINUOUS
 62
    7
 10
587.35245367956713
 20
473.9766809984145
 11
587.35245367956713
 21
466.9766809984145
  0
LINE
  8
_0-1_
  6
CONTINUOUS
 62
    7
 10
589.35245367956713
 20
473.9766809984145
 11
589.35245367956713
 21
466.9766809984145
  0
LINE
  8
_0-1_
  6
CONTINUOUS
 62
    7
 10
590.35245367956713
 20
466.9766809984145
 11
586.35245367956713
 21
466.9766809984145
  0
ARC
  8
_0-1_
  6
CONTINUOUS
 62
    7
 10
963.3191209438936
 20
225.62668040075504
 40
0.7999994023400754
 50
269.99995719571325
 51
0.0000428042871167
  0
LINE
  8
_0-1_
  6
CONTINUOUS
 62
    7
 10
964.11912034623344
 20
247.82668099841521
 11
945.91912034623339
 21
247.82668099841521
  0
ARC
  8
_0-1_
  6
CONTINUOUS
 62
    7
 10
946.71911974857334
 20
225.62668040075504
 40
0.7999994023400754
 50
179.9999571957129
 51
270.00004280428686
  0
LINE
  8
_0-1_
  6
CONTINUOUS
 62
    7
 10
946.71912034623346
 20
224.82668099841521
 11
963.31912034623337
 21
224.82668099841521
  0
LINE
  8
_0-1_
  6
CONTINUOUS
 62
    7
 10
958.51912034623342
 20
247.82668099841521
 11
951.51912034623342
 21
247.82668099841521
  0
LINE
  8
_0-1_
  6
CONTINUOUS
 62
    7
 10
958.51912034623342
 20
249.02668099841514
 11
951.51912034623342
 21
249.02668099841514
  0
LINE
  8
_0-1_
  6
CONTINUOUS
 62
    7
 10
962.61912034623344
 20
224.82668099841521
 11
962.61912034623344
 21
216.02668099841514
  0
LINE
  8
_0-1_
  6
CONTINUOUS
 62
    7
 10
962.61912034623344
 20
216.02668099841514
 11
947.41912034623339
 21
216.02668099841514
  0
LINE
  8
_0-1_
  6
CONTINUOUS
 62
    7
 10
947.41912034623339
 20
216.02668099841514
 11
947.41912034623339
 21
224.82668099841521
  0
ARC
  8
_0-1_
  6
CONTINUOUS
 62
    7
 10
596.65245427722732
 20
237.22668040075507
 40
0.7999994023400754
 50
269.99995719571325
 51
0.0000428042871167
  0
LINE
  8
_0-1_
  6
CONTINUOUS
 62
    7
 10
597.45245367956715
 20
259.42668099841523
 11
579.25245367956711
 21
259.42668099841523
  0
ARC
  8
_0-1_
  6
CONTINUOUS
 62
    7
 10
580.05245308190706
 20
237.22668040075507
 40
0.7999994023400754
 50
179.9999571957129
 51
270.00004280428686
  0
LINE
  8
_0-1_
  6
CONTINUOUS
 62
    7
 10
580.05245367956717
 20
236.42668099841523
 11
596.65245367956708
 21
236.42668099841523
  0
LINE
  8
_0-1_
  6
CONTINUOUS
 62
    7
 10
591.85245367956713
 20
259.42668099841523
 11
584.85245367956713
 21
259.42668099841523
  0
LINE
  8
_0-1_
  6
CONTINUOUS
 62
    7
 10
591.85245367956713
 20
260.62668099841516
 11
584.85245367956713
 21
260.62668099841516
  0
LINE
  8
_0-1_
  6
CONTINUOUS
 62
    7
 10
595.95245367956715
 20
236.42668099841523
 11
595.95245367956715
 21
227.62668099841516
  0
LINE
  8
_0-1_
  6
CONTINUOUS
 62
    7
 10
595.95245367956715
 20
227.62668099841516
 11
580.75245367956699
 21
227.62668099841516
  0
LINE
  8
_0-1_
  6
CONTINUOUS
 62
    7
 10
580.75245367956699
 20
227.62668099841516
 11
580.75245367956699
 21
236.42668099841523
  0
LINE
  8
_0-1_
  6
CONTINUOUS
 62
    7
 10
945.91912034623339
 20
247.82668099841521
 11
945.91912034623339
 21
247.27668099841525
  0
LINE
  8
_0-1_
  6
CONTINUOUS
 62
    7
 10
951.51912034623342
 20
249.02668099841514
 11
951.51912034623342
 21
252.12668099841522
  0
LINE
  8
_0-1_
  6
CONTINUOUS
 62
    7
 10
958.51912034623342
 20
252.12668099841522
 11
958.51912034623342
 21
249.02668099841514
  0
LINE
  8
_0-1_
  6
CONTINUOUS
 62
    7
 10
964.11912034623344
 20
247.27668099841525
 11
964.11912034623344
 21
247.82668099841521
  0
LINE
  8
_0-1_
  6
CONTINUOUS
 62
    7
 10
945.91912034623339
 20
242.27668099841525
 11
945.91912034623339
 21
241.7266809984153
  0
LINE
  8
_0-1_
  6
CONTINUOUS
 62
    7
 10
945.91912034623339
 20
240.52668099841525
 11
945.91912034623339
 21
225.62668099841528
  0
LINE
  8
_0-1_
  6
CONTINUOUS
 62
    7
 10
964.11912034623344
 20
225.62668099841528
 11
964.11912034623344
 21
240.52668099841525
  0
LINE
  8
_0-1_
  6
CONTINUOUS
 62
    7
 10
964.11912034623344
 20
241.7266809984153
 11
964.11912034623344
 21
242.27668099841525
  0
LINE
  8
_0-1_
  6
CONTINUOUS
 62
    7
 10
584.85245367956713
 20
259.42668099841523
 11
584.85245367956713
 21
263.72668099841524
  0
LINE
  8
_0-1_
  6
CONTINUOUS
 62
    7
 10
591.85245367956713
 20
263.72668099841524
 11
591.85245367956713
 21
259.42668099841523
  0
LINE
  8
_0-1_
  6
CONTINUOUS
 62
    7
 10
584.85245367956713
 20
264.92668099841523
 11
584.85245367956713
 21
265.47668099841524
  0
LINE
  8
_0-1_
  6
CONTINUOUS
 62
    7
 10
591.85245367956713
 20
265.47668099841524
 11
591.85245367956713
 21
264.92668099841523
  0
LINE
  8
_0-1_
  6
CONTINUOUS
 62
    7
 10
579.25245367956711
 20
252.12668099841528
 11
579.25245367956699
 21
237.2266809984153
  0
LINE
  8
_0-1_
  6
CONTINUOUS
 62
    7
 10
597.45245367956715
 20
237.2266809984153
 11
597.45245367956715
 21
252.12668099841528
  0
LINE
  8
_0-1_
  6
CONTINUOUS
 62
    7
 10
597.45245367956715
 20
253.32668099841532
 11
597.45245367956715
 21
253.87668099841528
  0
LINE
  8
_0-1_
  6
CONTINUOUS
 62
    7
 10
597.45245367956715
 20
258.87668099841528
 11
597.45245367956715
 21
259.42668099841523
  0
LINE
  8
_0-1_
  6
CONTINUOUS
 62
    7
 10
579.25245367956711
 20
259.42668099841523
 11
579.25245367956711
 21
258.87668099841528
  0
LINE
  8
_0-1_
  6
CONTINUOUS
 62
    7
 10
579.25245367956711
 20
253.87668099841528
 11
579.25245367956711
 21
253.32668099841532
  0
LINE
  8
_0-1_
  6
CONTINUOUS
 62
    7
 10
1426.3357870129002
 20
480.17668099841455
 11
1435.1357870129004
 21
480.17668099841455
  0
LINE
  8
_0-1_
  6
CONTINUOUS
 62
    7
 10
1435.1357870129004
 20
464.9766809984145
 11
1426.3357870129002
 21
464.9766809984145
  0
LINE
  8
_0-1_
  6
CONTINUOUS
 62
    7
 10
1459.3357870129002
 20
469.07668099841453
 11
1459.3357870129002
 21
476.07668099841453
  0
LINE
  8
_0-1_
  6
CONTINUOUS
 62
    7
 10
1458.1357870129004
 20
469.07668099841453
 11
1458.1357870129004
 21
476.07668099841453
  0
LINE
  8
_0-1_
  6
CONTINUOUS
 62
    7
 10
1435.1357870129004
 20
480.87668099841448
 11
1435.1357870129004
 21
464.27668099841457
  0
ARC
  8
_0-1_
  6
CONTINUOUS
 62
    7
 10
1435.9357864152402
 20
480.8766815960746
 40
0.7999994023400754
 50
89.999957195712923
 51
180.00004280428686
  0
LINE
  8
_0-1_
  6
CONTINUOUS
 62
    7
 10
1458.1357870129004
 20
463.4766809984145
 11
1458.1357870129004
 21
481.67668099841455
  0
ARC
  8
_0-1_
  6
CONTINUOUS
 62
    7
 10
1435.9357864152402
 20
464.27668040075434
 40
0.7999994023400754
 50
179.99995719571322
 51
270.00004280428714
  0
LINE
  8
_0-1_
  6
CONTINUOUS
 62
    7
 10
1450.8357870129004
 20
481.67668099841455
 11
1435.9357870129006
 21
481.67668099841455
  0
LINE
  8
_0-1_
  6
CONTINUOUS
 62
    7
 10
1462.4357870129003
 20
469.07668099841453
 11
1459.3357870129002
 21
469.07668099841453
  0
LINE
  8
_0-1_
  6
CONTINUOUS
 62
    7
 10
1459.3357870129002
 20
476.07668099841453
 11
1462.4357870129003
 21
476.07668099841453
  0
LINE
  8
_0-1_
  6
CONTINUOUS
 62
    7
 10
1463.6357870129004
 20
476.07668099841453
 11
1464.1857870129003
 21
476.07668099841453
  0
LINE
  8
_0-1_
  6
CONTINUOUS
 62
    7
 10
1464.1857870129003
 20
469.07668099841453
 11
1463.6357870129004
 21
469.07668099841453
  0
LINE
  8
_0-1_
  6
CONTINUOUS
 62
    7
 10
1464.1857870129003
 20
481.67668099841455
 11
1463.6357870129004
 21
481.67668099841455
  0
LINE
  8
_0-1_
  6
CONTINUOUS
 62
    7
 10
1462.4357870129003
 20
481.67668099841455
 11
1459.3357870129004
 21
481.67668099841455
  0
LINE
  8
_0-1_
  6
CONTINUOUS
 62
    7
 10
1458.1357870129004
 20
481.67668099841455
 11
1457.5857870129004
 21
481.67668099841455
  0
LINE
  8
_0-1_
  6
CONTINUOUS
 62
    7
 10
1452.5857870129004
 20
481.67668099841455
 11
1452.0357870129003
 21
481.67668099841455
  0
LINE
  8
_0-1_
  6
CONTINUOUS
 62
    7
 10
1435.9357870129006
 20
463.4766809984145
 11
1452.0357870129003
 21
463.4766809984145
  0
LINE
  8
_0-1_
  6
CONTINUOUS
 62
    7
 10
1459.3357870129004
 20
463.4766809984145
 11
1462.4357870129003
 21
463.4766809984145
  0
ARC
  8
_0-1_
  6
CONTINUOUS
 62
    7
 10
40.026325698450477
 20
633.67668159607546
 40
0.7999994023400754
 50
359.99995719571325
 51
90.000042804287119
  0
LINE
  8
_0-1_
  6
CONTINUOUS
 62
    7
 10
40.026325100790245
 20
634.4766809984153
 11
17.826325100790313
 21
634.4766809984153
  0
LINE
  8
_0-1_
  6
CONTINUOUS
 62
    7
 10
17.826325100790313
 20
634.4766809984153
 11
17.826325100790313
 21
616.27668099841525
  0
LINE
  8
_0-1_
  6
CONTINUOUS
 62
    7
 10
17.826325100790313
 20
616.27668099841525
 11
40.026325100790245
 21
616.27668099841525
  0
ARC
  8
_0-1_
  6
CONTINUOUS
 62
    7
 10
40.026325698450477
 20
617.0766804007552
 40
0.7999994023400754
 50
269.9999571957129
 51
0.000042804286875
  0
LINE
  8
_0-1_
  6
CONTINUOUS
 62
    7
 10
40.826325100790313
 20
617.07668099841532
 11
40.826325100790313
 21
633.67668099841523
  0
LINE
  8
_0-1_
  6
CONTINUOUS
 62
    7
 10
17.826325100790313
 20
628.87668099841528
 11
17.826325100790313
 21
621.87668099841528
  0
LINE
  8
_0-1_
  6
CONTINUOUS
 62
    7
 10
17.826325100790313
 20
621.87668099841528
 11
8.6263251007903818
 21
621.87668099841528
  0
LINE
  8
_0-1_
  6
CONTINUOUS
 62
    7
 10
8.6263251007903818
 20
621.87668099841528
 11
8.6263251007903818
 21
628.87668099841528
  0
LINE
  8
_0-1_
  6
CONTINUOUS
 62
    7
 10
8.6263251007903818
 20
628.87668099841528
 11
17.826325100790313
 21
628.87668099841528
  0
ARC
  8
_0-1_
  6
CONTINUOUS
 62
    7
 10
8.6263245031301494
 20
628.07668159607555
 40
0.799999402340079
 50
89.999957195713136
 51
180.00004280428709
  0
LINE
  8
_0-1_
  6
CONTINUOUS
 62
    7
 10
8.6263251007903818
 20
628.87668099841528
 11
8.6263251007903818
 21
621.87668099841528
  0
ARC
  8
_0-1_
  6
CONTINUOUS
 62
    7
 10
8.6263245031301494
 20
622.67668040075511
 40
0.7999994023400754
 50
179.99995719571316
 51
270.00004280428709
  0
LINE
  8
_0-1_
  6
CONTINUOUS
 62
    7
 10
7.8263251007903136
 20
622.67668099841523
 11
7.8263251007903136
 21
628.07668099841532
  0
LINE
  8
_0-1_
  6
CONTINUOUS
 62
    7
 10
16.626325100790381
 20
628.87668099841528
 11
16.626325100790381
 21
621.87668099841528
  0
CIRCLE
  8
_0-1_
  6
CONTINUOUS
 62
    7
 10
93.826325100790313
 20
625.37668099841528
 40
9.0999999999999996
  0
CIRCLE
  8
_0-1_
  6
CONTINUOUS
 62
    7
 10
93.826325100790313
 20
625.37668099841528
 40
7.5999999999999978
  0
LINE
  8
_0-1_
  6
CONTINUOUS
 62
    7
 10
95.826325100790313
 20
625.77668099841525
 11
95.826325100790313
 21
626.77668099841525
  0
LINE
  8
_0-1_
  6
CONTINUOUS
 62
    7
 10
95.826325100790313
 20
626.77668099841525
 11
91.826325100790313
 21
626.77668099841525
  0
LINE
  8
_0-1_
  6
CONTINUOUS
 62
    7
 10
91.826325100790313
 20
626.77668099841525
 11
91.826325100790313
 21
625.77668099841525
  0
LINE
  8
_0-1_
  6
CONTINUOUS
 62
    7
 10
91.826325100790313
 20
625.77668099841525
 11
91.826325100790313
 21
618.04468099841528
  0
ARC
  8
_0-1_
  6
CONTINUOUS
 62
    7
 10
93.826323698945316
 20
625.37335710404943
 40
7.5966761056341427
 50
254.73564928225221
 51
270.00001057301938
  0
ARC
  8
_0-1_
  6
CONTINUOUS
 62
    7
 10
93.82641725070755
 20
625.372679879629
 40
7.5959988817725987
 50
269.9993049233642
 51
285.26503522136408
  0
LINE
  8
_0-1_
  6
CONTINUOUS
 62
    7
 10
95.826325100790313
 20
618.04468099841528
 11
95.826325100790313
 21
625.77668099841525
  0
LINE
  8
_0-1_
  6
CONTINUOUS
 62
    7
 10
92.826325100790313
 20
626.77668099841525
 11
92.826325100790313
 21
619.77668099841525
  0
LINE
  8
_0-1_
  6
CONTINUOUS
 62
    7
 10
94.826325100790313
 20
626.77668099841525
 11
94.826325100790313
 21
619.77668099841525
  0
LINE
  8
_0-1_
  6
CONTINUOUS
 62
    7
 10
95.826325100790313
 20
619.77668099841525
 11
91.826325100790313
 21
619.77668099841525
  0
LINE
  8
_0-1_
  6
CONTINUOUS
 62
    7
 10
40.826325100790313
 20
632.9766809984153
 11
49.626325100790381
 21
632.9766809984153
  0
LINE
  8
_0-1_
  6
CONTINUOUS
 62
    7
 10
49.626325100790381
 20
632.9766809984153
 11
49.626325100790381
 21
617.77668099841525
  0
LINE
  8
_0-1_
  6
CONTINUOUS
 62
    7
 10
49.626325100790381
 20
617.77668099841525
 11
40.826325100790313
 21
617.77668099841525
  0
LINE
  8
_0-2_
  6
CONTINUOUS
 62
    4
 10
901.78540449853119
 20
728.77067099927444
 11
789.68576037041736
 21
616.6710268711605
  0
LINE
  8
_0-2_
  6
CONTINUOUS
 62
    4
 10
732.07977701376012
 20
898.47629848404562
 11
619.98013288564618
 21
786.37665435593191
  0
LINE
  8
_0-2_
  6
CONTINUOUS
 62
    4
 10
535.11873783186479
 20
728.77067099927444
 11
423.01909370375091
 21
616.6710268711605
  0
LINE
  8
_0-2_
  6
CONTINUOUS
 62
    4
 10
365.41311034709337
 20
898.47629848404562
 11
253.31346621897955
 21
786.37665435593191
  0
LINE
  8
_0-2_
  6
CONTINUOUS
 62
    4
 10
1268.4520711651985
 20
728.77067099927444
 11
1156.3524270370844
 21
616.6710268711605
  0
LINE
  8
_0-2_
  6
CONTINUOUS
 62
    4
 10
1098.7464436804264
 20
898.47629848404562
 11
986.64679955231235
 21
786.37665435593191
  0
LINE
  8
_0-2_
  6
CONTINUOUS
 62
    4
 10
1452.5857870129004
 20
1090.3766809984149
 11
1457.5857870129004
 21
1090.3766809984149
  0
LINE
  8
_0-2_
  6
CONTINUOUS
 62
    4
 10
1464.1857870129003
 20
1090.3766809984149
 11
1469.1857870129003
 21
1090.3766809984149
  0
LINE
  8
_0-2_
  6
CONTINUOUS
 62
    4
 10
1475.7857870129003
 20
1090.3766809984149
 11
1480.7857870129003
 21
1090.3766809984149
  0
LINE
  8
_0-2_
  6
CONTINUOUS
 62
    4
 10
1452.5857870129004
 20
467.07668099841458
 11
1452.5857870129004
 21
765.87668099841482
  0
LINE
  8
_0-2_
  6
CONTINUOUS
 62
    4
 10
1452.5857870129004
 20
770.87668099841494
 11
1452.5857870129004
 21
1090.3766809984149
  0
LINE
  8
_0-2_
  6
CONTINUOUS
 62
    4
 10
1457.5857870129004
 20
467.07668099841458
 11
1457.5857870129004
 21
765.87668099841482
  0
LINE
  8
_0-2_
  6
CONTINUOUS
 62
    4
 10
1457.5857870129004
 20
770.87668099841494
 11
1457.5857870129004
 21
1090.3766809984149
  0
LINE
  8
_0-2_
  6
CONTINUOUS
 62
    4
 10
1464.1857870129003
 20
467.07668099841458
 11
1464.1857870129003
 21
765.87668099841482
  0
LINE
  8
_0-2_
  6
CONTINUOUS
 62
    4
 10
1464.1857870129003
 20
770.87668099841494
 11
1464.1857870129003
 21
1090.3766809984149
  0
LINE
  8
_0-2_
  6
CONTINUOUS
 62
    4
 10
1469.1857870129003
 20
467.07668099841458
 11
1469.1857870129003
 21
765.87668099841482
  0
LINE
  8
_0-2_
  6
CONTINUOUS
 62
    4
 10
1469.1857870129003
 20
770.87668099841494
 11
1469.1857870129003
 21
1090.3766809984149
  0
LINE
  8
_0-2_
  6
CONTINUOUS
 62
    4
 10
1475.7857870129003
 20
467.07668099841458
 11
1475.7857870129003
 21
765.87668099841482
  0
LINE
  8
_0-2_
  6
CONTINUOUS
 62
    4
 10
1475.7857870129003
 20
770.87668099841494
 11
1475.7857870129003
 21
1090.3766809984149
  0
LINE
  8
_0-2_
  6
CONTINUOUS
 62
    4
 10
1480.7857870129003
 20
467.07668099841458
 11
1480.7857870129003
 21
765.87668099841482
  0
LINE
  8
_0-2_
  6
CONTINUOUS
 62
    4
 10
1480.7857870129003
 20
770.87668099841494
 11
1480.7857870129003
 21
1090.3766809984149
  0
LINE
  8
_0-2_
  6
CONTINUOUS
 62
    4
 10
222.88578701290043
 20
770.87668099841494
 11
222.88578701290043
 21
1084.1766809984151
  0
LINE
  8
_0-2_
  6
CONTINUOUS
 62
    4
 10
568.35245367956713
 20
770.87668099841494
 11
568.35245367956713
 21
1084.1766809984151
  0
LINE
  8
_0-2_
  6
CONTINUOUS
 62
    4
 10
608.35245367956713
 20
770.87668099841494
 11
608.35245367956713
 21
1084.1766809984151
  0
LINE
  8
_0-2_
  6
CONTINUOUS
 62
    4
 10
935.01912034623342
 20
770.87668099841494
 11
935.01912034623342
 21
1084.1766809984151
  0
LINE
  8
_0-2_
  6
CONTINUOUS
 62
    4
 10
975.01912034623342
 20
770.87668099841494
 11
975.01912034623342
 21
1084.1766809984151
  0
LINE
  8
_0-2_
  6
CONTINUOUS
 62
    4
 10
1320.4857870129003
 20
770.87668099841494
 11
1320.4857870129003
 21
1084.1766809984151
  0
LINE
  8
_0-2_
  6
CONTINUOUS
 62
    4
 10
975.01912034623342
 20
489.07668099841447
 11
975.01912034623342
 21
765.87668099841482
  0
LINE
  8
_0-2_
  6
CONTINUOUS
 62
    4
 10
935.01912034623342
 20
489.07668099841447
 11
935.01912034623342
 21
765.87668099841482
  0
LINE
  8
_0-2_
  6
CONTINUOUS
 62
    4
 10
608.35245367956713
 20
489.07668099841447
 11
608.35245367956713
 21
765.87668099841482
  0
LINE
  8
_0-2_
  6
CONTINUOUS
 62
    4
 10
568.35245367956713
 20
489.07668099841447
 11
568.35245367956713
 21
765.87668099841482
  0
LINE
  8
_0-2_
  6
CONTINUOUS
 62
    4
 10
222.88578701290043
 20
489.07668099841447
 11
222.88578701290043
 21
765.87668099841482
  0
LINE
  8
_0-2_
  6
CONTINUOUS
 62
    4
 10
1320.4857870129003
 20
489.07668099841447
 11
1320.4857870129003
 21
765.87668099841482
  0
LINE
  8
_0-2_
  6
CONTINUOUS
 62
    4
 10
1320.4857870129003
 20
242.27668099841514
 11
1140.8524536795673
 21
242.27668099841525
  0
LINE
  8
_0-2_
  6
CONTINUOUS
 62
    4
 10
1320.4857870129003
 20
247.27668099841514
 11
1140.8524536795673
 21
247.27668099841525
  0
LINE
  8
_0-2_
  6
CONTINUOUS
 62
    4
 10
1135.8524536795673
 20
242.27668099841525
 11
933.81912034623337
 21
242.27668099841525
  0
LINE
  8
_0-2_
  6
CONTINUOUS
 62
    4
 10
1135.8524536795673
 20
247.27668099841525
 11
933.81912034623337
 21
247.27668099841525
  0
LINE
  8
_0-2_
  6
CONTINUOUS
 62
    4
 10
975.01912034623342
 20
253.87668099841522
 11
774.18578701290039
 21
253.87668099841522
  0
LINE
  8
_0-2_
  6
CONTINUOUS
 62
    4
 10
975.01912034623342
 20
258.87668099841522
 11
774.18578701290039
 21
258.87668099841522
  0
LINE
  8
_0-2_
  6
CONTINUOUS
 62
    4
 10
769.18578701290027
 20
253.87668099841522
 11
567.1524536795672
 21
253.87668099841528
  0
LINE
  8
_0-2_
  6
CONTINUOUS
 62
    4
 10
769.18578701290027
 20
258.87668099841522
 11
567.1524536795672
 21
258.87668099841528
  0
LINE
  8
_0-2_
  6
CONTINUOUS
 62
    4
 10
402.5191203462337
 20
265.47668099841524
 11
222.88578701290043
 21
265.4766809984153
  0
LINE
  8
_0-2_
  6
CONTINUOUS
 62
    4
 10
402.5191203462337
 20
270.47668099841519
 11
222.88578701290043
 21
270.4766809984153
  0
LINE
  8
_0-2_
  6
CONTINUOUS
 62
    4
 10
608.35245367956713
 20
265.47668099841524
 11
407.5191203462337
 21
265.47668099841524
  0
LINE
  8
_0-2_
  6
CONTINUOUS
 62
    4
 10
608.35245367956713
 20
270.47668099841519
 11
407.5191203462337
 21
270.47668099841519
  0
LINE
  8
_0-3_
  6
CONTINUOUS
 62
    2
 10
221.68578701290039
 20
201.37668099841528
 11
221.68578701290039
 21
311.37668099841528
  0
LINE
  8
_0-3_
  6
CONTINUOUS
 62
    2
 10
1321.6857870129003
 20
201.37668099841528
 11
1321.6857870129003
 21
311.37668099841528
  0
LINE
  8
_0-3_
  6
CONTINUOUS
 62
    2
 10
1331.0566369113782
 20
201.37668099841539
 11
1346.6857870129003
 21
217.0058310999376
  0
LINE
  8
_0-3_
  6
CONTINUOUS
 62
    2
 10
1321.6857870129003
 20
214.6332480979106
 11
1346.6857870129003
 21
239.63324809791129
  0
LINE
  8
_0-3_
  6
CONTINUOUS
 62
    2
 10
1321.6857870128994
 20
237.26066509587633
 11
1346.6857870129003
 21
262.26066509587701
  0
LINE
  8
_0-3_
  6
CONTINUOUS
 62
    2
 10
1321.6857870129003
 20
259.88808209384995
 11
1346.6857870129003
 21
284.88808209385069
  0
LINE
  8
_0-3_
  6
CONTINUOUS
 62
    2
 10
1321.6857870129024
 20
282.51549909181778
 11
1346.6857870129003
 21
307.51549909181642
  0
LINE
  8
_0-3_
  6
CONTINUOUS
 62
    2
 10
1321.6857870129003
 20
305.14291608978942
 11
1327.9195519215254
 21
311.37668099841528
  0
LINE
  8
_0-3_
  6
CONTINUOUS
 62
    2
 10
1331.0566369113782
 20
201.37668099841539
 11
1346.6857870129003
 21
217.0058310999376
  0
LINE
  8
_0-3_
  6
CONTINUOUS
 62
    2
 10
1321.6857870129003
 20
214.6332480979106
 11
1346.6857870129003
 21
239.63324809791129
  0
LINE
  8
_0-3_
  6
CONTINUOUS
 62
    2
 10
1321.6857870128994
 20
237.26066509587633
 11
1346.6857870129003
 21
262.26066509587701
  0
LINE
  8
_0-3_
  6
CONTINUOUS
 62
    2
 10
1321.6857870129003
 20
259.88808209384995
 11
1346.6857870129003
 21
284.88808209385069
  0
LINE
  8
_0-3_
  6
CONTINUOUS
 62
    2
 10
1321.6857870129024
 20
282.51549909181778
 11
1346.6857870129003
 21
307.51549909181642
  0
LINE
  8
_0-3_
  6
CONTINUOUS
 62
    2
 10
1321.6857870129003
 20
305.14291608978942
 11
1327.9195519215254
 21
311.37668099841528
  0
LINE
  8
_0-3_
  6
CONTINUOUS
 62
    2
 10
199.6857870129005
 20
201.3766809984155
 11
221.68578701290084
 21
223.37668099841573
  0
LINE
  8
_0-3_
  6
CONTINUOUS
 62
    2
 10
196.68578701290152
 20
221.00409799638259
 11
221.68578701289959
 21
246.00409799638066
  0
LINE
  8
_0-3_
  6
CONTINUOUS
 62
    2
 10
196.68578701290016
 20
243.63151499435446
 11
221.68578701290084
 21
268.63151499435514
  0
LINE
  8
_0-3_
  6
CONTINUOUS
 62
    2
 10
196.68578701290061
 20
266.25893199232109
 11
221.68578701290084
 21
291.25893199232137
  0
LINE
  8
_0-3_
  6
CONTINUOUS
 62
    2
 10
196.68578701290016
 20
288.88634899029375
 11
219.17611902102112
 21
311.37668099841494
  0
LINE
  8
_0-3_
  6
CONTINUOUS
 62
    2
 10
774.18578701290039
 20
1085.3766809984149
 11
1135.8524536795673
 21
1085.3766809984149
  0
LINE
  8
_0-3_
  6
CONTINUOUS
 62
    2
 10
1140.8524536795673
 20
1085.3766809984149
 11
1321.6857870129003
 21
1085.3766809984149
  0
LINE
  8
_0-3_
  6
CONTINUOUS
 62
    2
 10
1321.6857870129003
 20
451.37668099841448
 11
1140.8524536795673
 21
451.37668099841448
  0
LINE
  8
_0-3_
  6
CONTINUOUS
 62
    2
 10
221.68578701290039
 20
1085.3766809984149
 11
402.5191203462337
 21
1085.3766809984149
  0
LINE
  8
_0-3_
  6
CONTINUOUS
 62
    2
 10
407.5191203462337
 20
1085.3766809984149
 11
769.18578701290027
 21
1085.3766809984149
  0
LINE
  8
_0-3_
  6
CONTINUOUS
 62
    2
 10
402.5191203462337
 20
451.37668099841448
 11
221.68578701290039
 21
451.37668099841448
  0
LINE
  8
_0-3_
  6
CONTINUOUS
 62
    2
 10
769.18578701290027
 20
451.37668099841448
 11
407.5191203462337
 21
451.37668099841448
  0
LINE
  8
_0-3_
  6
CONTINUOUS
 62
    2
 10
1135.8524536795673
 20
451.37668099841448
 11
774.18578701290039
 21
451.37668099841448
  0
LINE
  8
_0-3_
  6
CONTINUOUS
 62
    2
 10
1321.6857870129003
 20
1085.3766809984149
 11
1321.6857870129003
 21
770.87668099841494
  0
LINE
  8
_0-3_
  6
CONTINUOUS
 62
    2
 10
1321.6857870129003
 20
765.87668099841482
 11
1321.6857870129003
 21
451.37668099841448
  0
LINE
  8
_0-3_
  6
CONTINUOUS
 62
    2
 10
221.68578701290039
 20
451.37668099841448
 11
221.68578701290039
 21
765.87668099841482
  0
LINE
  8
_0-3_
  6
CONTINUOUS
 62
    2
 10
221.68578701290039
 20
770.87668099841494
 11
221.68578701290039
 21
1085.3766809984149
  0
LINE
  8
_0-3_
  6
CONTINUOUS
 62
    2
 10
221.68578701290039
 20
451.37668099841448
 11
196.68578701290039
 21
451.37668099841448
  0
LINE
  8
_0-3_
  6
CONTINUOUS
 62
    2
 10
1321.6857870129003
 20
451.37668099841448
 11
1346.6857870129003
 21
451.37668099841448
  0
LINE
  8
_0-3_
  6
CONTINUOUS
 62
    2
 10
1332.1550499337154
 20
451.37668099841567
 11
1346.6857870128994
 21
465.90741807759957
  0
LINE
  8
_0-3_
  6
CONTINUOUS
 62
    2
 10
1321.6857870129013
 20
463.5348350755745
 11
1346.6857870128994
 21
488.53483507557285
  0
LINE
  8
_0-3_
  6
CONTINUOUS
 62
    2
 10
1321.6857870128983
 20
486.16225207353835
 11
1346.6857870128994
 21
511.1622520735388
  0
LINE
  8
_0-3_
  6
CONTINUOUS
 62
    2
 10
1321.6857870129013
 20
508.78966907151368
 11
1346.6857870128994
 21
533.78966907151209
  0
LINE
  8
_0-3_
  6
CONTINUOUS
 62
    2
 10
1321.6857870128983
 20
531.41708606947759
 11
1346.6857870128994
 21
556.41708606947804
  0
LINE
  8
_0-3_
  6
CONTINUOUS
 62
    2
 10
1321.6857870129013
 20
554.04450306745297
 11
1346.6857870129003
 21
579.04450306745343
  0
LINE
  8
_0-3_
  6
CONTINUOUS
 62
    2
 10
1321.6857870128983
 20
576.67192006541688
 11
1346.6857870128983
 21
601.67192006541745
  0
LINE
  8
_0-3_
  6
CONTINUOUS
 62
    2
 10
1321.6857870129003
 20
599.29933706339215
 11
1346.6857870129003
 21
624.29933706339238
  0
LINE
  8
_0-3_
  6
CONTINUOUS
 62
    2
 10
1321.6857870128983
 20
621.92675406135617
 11
1346.6857870128983
 21
646.92675406135685
  0
LINE
  8
_0-3_
  6
CONTINUOUS
 62
    2
 10
1321.6857870129003
 20
644.55417105933133
 11
1346.6857870129003
 21
669.55417105933156
  0
LINE
  8
_0-3_
  6
CONTINUOUS
 62
    2
 10
1321.6857870128994
 20
667.18158805729694
 11
1346.6857870129003
 21
692.18158805729729
  0
LINE
  8
_0-3_
  6
CONTINUOUS
 62
    2
 10
1321.6857870128994
 20
689.8090050552704
 11
1346.6857870129003
 21
714.80900505527165
  0
LINE
  8
_0-3_
  6
CONTINUOUS
 62
    2
 10
1321.6857870129013
 20
712.4364220532384
 11
1346.6857870128994
 21
737.43642205323635
  0
LINE
  8
_0-3_
  6
CONTINUOUS
 62
    2
 10
1321.6857870128994
 20
735.06383905120947
 11
1346.6857870129003
 21
760.06383905121094
  0
LINE
  8
_0-3_
  6
CONTINUOUS
 62
    2
 10
1321.6857870128994
 20
780.31867304714887
 11
1346.6857870129003
 21
805.31867304715035
  0
LINE
  8
_0-3_
  6
CONTINUOUS
 62
    2
 10
1321.6857870129013
 20
802.94609004511653
 11
1346.6857870128994
 21
827.94609004511482
  0
LINE
  8
_0-3_
  6
CONTINUOUS
 62
    2
 10
1321.6857870128994
 20
825.57350704308817
 11
1346.6857870129003
 21
850.57350704308953
  0
LINE
  8
_0-3_
  6
CONTINUOUS
 62
    2
 10
1321.6857870129013
 20
848.20092404105594
 11
1346.6857870128994
 21
873.200924041054
  0
LINE
  8
_0-3_
  6
CONTINUOUS
 62
    2
 10
1321.6857870128994
 20
870.82834103902735
 11
1346.6857870129003
 21
895.82834103902882
  0
LINE
  8
_0-3_
  6
CONTINUOUS
 62
    2
 10
1321.6857870129013
 20
893.45575803699512
 11
1346.6857870128983
 21
918.45575803699307
  0
LINE
  8
_0-3_
  6
CONTINUOUS
 62
    2
 10
1321.6857870128994
 20
916.08317503496027
 11
1346.6857870129003
 21
941.08317503496027
  0
LINE
  8
_0-3_
  6
CONTINUOUS
 62
    2
 10
1321.6857870129013
 20
938.7105920329343
 11
1346.6857870128983
 21
963.71059203293236
  0
LINE
  8
_0-3_
  6
CONTINUOUS
 62
    2
 10
1321.6857870128994
 20
961.33800903089968
 11
1346.6857870129003
 21
986.33800903089968
  0
LINE
  8
_0-3_
  6
CONTINUOUS
 62
    2
 10
1321.6857870129003
 20
983.96542602887336
 11
1346.6857870128983
 21
1008.9654260288712
  0
LINE
  8
_0-3_
  6
CONTINUOUS
 62
    2
 10
1321.6857870128994
 20
1006.592843026839
 11
1346.6857870128994
 21
1031.592843026839
  0
LINE
  8
_0-3_
  6
CONTINUOUS
 62
    2
 10
1321.6857870129003
 20
1029.2202600248128
 11
1346.6857870129003
 21
1054.2202600248128
  0
LINE
  8
_0-3_
  6
CONTINUOUS
 62
    2
 10
1321.6857870128994
 20
1051.8476770227782
 11
1346.6857870128994
 21
1076.8476770227782
  0
LINE
  8
_0-3_
  6
CONTINUOUS
 62
    2
 10
1321.6857870129003
 20
1074.4750940207518
 11
1346.6857870129003
 21
1099.4750940207518
  0
LINE
  8
_0-3_
  6
CONTINUOUS
 62
    2
 10
1309.9599569925974
 20
1085.3766809984156
 11
1334.9599569925974
 21
1110.3766809984153
  0
LINE
  8
_0-3_
  6
CONTINUOUS
 62
    2
 10
1287.3325399946243
 20
1085.3766809984153
 11
1312.3325399946224
 21
1110.3766809984135
  0
LINE
  8
_0-3_
  6
CONTINUOUS
 62
    2
 10
1264.7051229966584
 20
1085.3766809984156
 11
1289.7051229966584
 21
1110.3766809984156
  0
LINE
  8
_0-3_
  6
CONTINUOUS
 62
    2
 10
1242.0777059986853
 20
1085.3766809984156
 11
1267.0777059986833
 21
1110.3766809984135
  0
LINE
  8
_0-3_
  6
CONTINUOUS
 62
    2
 10
1219.4502890007174
 20
1085.376680998414
 11
1244.4502890007183
 21
1110.3766809984158
  0
LINE
  8
_0-3_
  6
CONTINUOUS
 62
    2
 10
1196.8228720027454
 20
1085.3766809984156
 11
1221.8228720027434
 21
1110.3766809984135
  0
LINE
  8
_0-3_
  6
CONTINUOUS
 62
    2
 10
1174.1954550047773
 20
1085.376680998414
 11
1199.1954550047794
 21
1110.3766809984163
  0
LINE
  8
_0-3_
  6
CONTINUOUS
 62
    2
 10
1151.5680380068063
 20
1085.3766809984163
 11
1176.5680380068044
 21
1110.3766809984135
  0
LINE
  8
_0-3_
  6
CONTINUOUS
 62
    2
 10
1106.3132040108673
 20
1085.3766809984163
 11
1131.3132040108653
 21
1110.3766809984138
  0
LINE
  8
_0-3_
  6
CONTINUOUS
 62
    2
 10
1083.6857870128994
 20
1085.3766809984144
 11
1108.6857870129013
 21
1110.3766809984165
  0
LINE
  8
_0-3_
  6
CONTINUOUS
 62
    2
 10
1061.0583700149334
 20
1085.3766809984149
 11
1086.0583700149334
 21
1110.3766809984147
  0
LINE
  8
_0-3_
  6
CONTINUOUS
 62
    2
 10
1038.4309530169603
 20
1085.3766809984149
 11
1063.4309530169623
 21
1110.3766809984165
  0
LINE
  8
_0-3_
  6
CONTINUOUS
 62
    2
 10
1015.8035360189944
 20
1085.3766809984144
 11
1040.8035360189944
 21
1110.3766809984149
  0
LINE
  8
_0-3_
  6
CONTINUOUS
 62
    2
 10
993.17611902102134
 20
1085.3766809984149
 11
1018.1761190210233
 21
1110.3766809984169
  0
LINE
  8
_0-3_
  6
CONTINUOUS
 62
    2
 10
970.54870202305437
 20
1085.3766809984147
 11
995.54870202305437
 21
1110.3766809984149
  0
LINE
  8
_0-3_
  6
CONTINUOUS
 62
    2
 10
947.92128502508239
 20
1085.3766809984153
 11
972.92128502508239
 21
1110.3766809984153
  0
LINE
  8
_0-3_
  6
CONTINUOUS
 62
    2
 10
925.29386802711542
 20
1085.3766809984149
 11
950.29386802711542
 21
1110.3766809984153
  0
LINE
  8
_0-3_
  6
CONTINUOUS
 62
    2
 10
902.66645102914276
 20
1085.3766809984153
 11
927.66645102914242
 21
1110.3766809984156
  0
LINE
  8
_0-3_
  6
CONTINUOUS
 62
    2
 10
880.03903403117635
 20
1085.3766809984149
 11
905.03903403117692
 21
1110.3766809984153
  0
LINE
  8
_0-3_
  6
CONTINUOUS
 62
    2
 10
857.41161703320358
 20
1085.3766809984153
 11
882.41161703320403
 21
1110.3766809984158
  0
LINE
  8
_0-3_
  6
CONTINUOUS
 62
    2
 10
200.78420003523569
 20
451.37668099841357
 11
221.68578701290152
 21
472.2782679760798
  0
LINE
  8
_0-3_
  6
CONTINUOUS
 62
    2
 10
834.78420003523694
 20
1085.3766809984149
 11
859.78420003523774
 21
1110.3766809984156
  0
LINE
  8
_0-3_
  6
CONTINUOUS
 62
    2
 10
196.68578701289925
 20
469.90568497405047
 11
221.6857870128997
 21
494.90568497405109
  0
LINE
  8
_0-3_
  6
CONTINUOUS
 62
    2
 10
812.15678303726429
 20
1085.3766809984156
 11
837.15678303726269
 21
1110.376680998414
  0
LINE
  8
_0-3_
  6
CONTINUOUS
 62
    2
 10
196.68578701290084
 20
492.53310197201818
 11
221.68578701290118
 21
517.53310197201881
  0
LINE
  8
_0-3_
  6
CONTINUOUS
 62
    2
 10
789.52936603929651
 20
1085.376680998414
 11
814.52936603929833
 21
1110.3766809984156
  0
LINE
  8
_0-3_
  6
CONTINUOUS
 62
    2
 10
196.68578701289902
 20
515.16051896998976
 11
221.68578701289936
 21
540.1605189699901
  0
LINE
  8
_0-3_
  6
CONTINUOUS
 62
    2
 10
196.68578701290061
 20
537.7879359679573
 11
221.68578701290107
 21
562.7879359679581
  0
LINE
  8
_0-3_
  6
CONTINUOUS
 62
    2
 10
744.27453204335722
 20
1085.376680998414
 11
769.27453204335904
 21
1110.3766809984156
  0
LINE
  8
_0-3_
  6
CONTINUOUS
 62
    2
 10
196.68578701290107
 20
560.41535296593133
 11
221.68578701289925
 21
585.41535296592928
  0
LINE
  8
_0-3_
  6
CONTINUOUS
 62
    2
 10
721.64711504538604
 20
1085.3766809984163
 11
746.64711504538342
 21
1110.3766809984135
  0
LINE
  8
_0-3_
  6
CONTINUOUS
 62
    2
 10
196.68578701290016
 20
583.04276996389648
 11
221.68578701290107
 21
608.04276996389728
  0
LINE
  8
_0-3_
  6
CONTINUOUS
 62
    2
 10
699.01969804741804
 20
1085.3766809984144
 11
724.01969804741975
 21
1110.3766809984163
  0
LINE
  8
_0-3_
  6
CONTINUOUS
 62
    2
 10
196.68578701290107
 20
605.67018696187051
 11
221.68578701289902
 21
630.67018696186869
  0
LINE
  8
_0-3_
  6
CONTINUOUS
 62
    2
 10
676.39228104944663
 20
1085.3766809984165
 11
701.39228104944402
 21
1110.3766809984135
  0
LINE
  8
_0-3_
  6
CONTINUOUS
 62
    2
 10
196.68578701290016
 20
628.29760395983578
 11
221.68578701290084
 21
653.29760395983635
  0
LINE
  8
_0-3_
  6
CONTINUOUS
 62
    2
 10
653.7648640514792
 20
1085.3766809984144
 11
678.76486405148045
 21
1110.3766809984163
  0
LINE
  8
_0-3_
  6
CONTINUOUS
 62
    2
 10
196.68578701290027
 20
650.92502095780207
 11
221.68578701289902
 21
675.92502095780059
  0
LINE
  8
_0-3_
  6
CONTINUOUS
 62
    2
 10
631.13744705351325
 20
1085.3766809984149
 11
656.13744705351291
 21
1110.3766809984144
  0
LINE
  8
_0-3_
  6
CONTINUOUS
 62
    2
 10
196.6857870128997
 20
673.55243795577484
 11
221.68578701290039
 21
698.55243795577553
  0
LINE
  8
_0-3_
  6
CONTINUOUS
 62
    2
 10
608.5100300555398
 20
1085.3766809984149
 11
633.51003005554139
 21
1110.3766809984165
  0
LINE
  8
_0-3_
  6
CONTINUOUS
 62
    2
 10
196.68578701290016
 20
696.17985495374125
 11
221.68578701290107
 21
721.17985495374205
  0
LINE
  8
_0-3_
  6
CONTINUOUS
 62
    2
 10
585.88261305757282
 20
1085.3766809984138
 11
610.8826130575735
 21
1110.3766809984144
  0
LINE
  8
_0-3_
  6
CONTINUOUS
 62
    2
 10
196.68578701289948
 20
718.80727195171402
 11
221.68578701290039
 21
743.80727195171471
  0
LINE
  8
_0-3_
  6
CONTINUOUS
 62
    2
 10
563.2551960596005
 20
1085.3766809984149
 11
588.25519605960209
 21
1110.3766809984165
  0
LINE
  8
_0-3_
  6
CONTINUOUS
 62
    2
 10
540.62777906163353
 20
1085.376680998414
 11
565.62777906163432
 21
1110.3766809984149
  0
LINE
  8
_0-3_
  6
CONTINUOUS
 62
    2
 10
518.00036206366144
 20
1085.3766809984153
 11
543.00036206366291
 21
1110.3766809984169
  0
LINE
  8
_0-3_
  6
CONTINUOUS
 62
    2
 10
196.68578701289993
 20
786.68952294561972
 11
221.68578701290107
 21
811.68952294562097
  0
LINE
  8
_0-3_
  6
CONTINUOUS
 62
    2
 10
495.37294506569423
 20
1085.376680998414
 11
520.37294506569503
 21
1110.3766809984149
  0
LINE
  8
_0-3_
  6
CONTINUOUS
 62
    2
 10
196.68578701289902
 20
809.31693994359227
 11
221.68578701289993
 21
834.31693994359306
  0
LINE
  8
_0-3_
  6
CONTINUOUS
 62
    2
 10
472.74552806772214
 20
1085.3766809984153
 11
497.74552806772317
 21
1110.3766809984165
  0
LINE
  8
_0-3_
  6
CONTINUOUS
 62
    2
 10
196.68578701289993
 20
831.94435694155913
 11
221.68578701290084
 21
856.94435694156015
  0
LINE
  8
_0-3_
  6
CONTINUOUS
 62
    2
 10
450.11811106975483
 20
1085.376680998414
 11
475.11811106975574
 21
1110.3766809984153
  0
LINE
  8
_0-3_
  6
CONTINUOUS
 62
    2
 10
196.68578701289879
 20
854.57177393953145
 11
221.6857870128997
 21
879.57177393953247
  0
LINE
  8
_0-3_
  6
CONTINUOUS
 62
    2
 10
427.49069407178291
 20
1085.3766809984156
 11
452.49069407178387
 21
1110.3766809984165
  0
LINE
  8
_0-3_
  6
CONTINUOUS
 62
    2
 10
196.68578701290039
 20
877.19919093749933
 11
221.68578701290152
 21
902.19919093750013
  0
LINE
  8
_0-3_
  6
CONTINUOUS
 62
    2
 10
196.68578701290016
 20
899.82660793547199
 11
221.68578701289936
 21
924.82660793547142
  0
LINE
  8
_0-3_
  6
CONTINUOUS
 62
    2
 10
196.68578701290027
 20
922.45402493343817
 11
221.68578701290118
 21
947.45402493343942
  0
LINE
  8
_0-3_
  6
CONTINUOUS
 62
    2
 10
359.6084430778763
 20
1085.3766809984144
 11
384.60844307787726
 21
1110.3766809984153
  0
LINE
  8
_0-3_
  6
CONTINUOUS
 62
    2
 10
196.68578701289993
 20
945.08144193141117
 11
221.68578701289925
 21
970.08144193141083
  0
LINE
  8
_0-3_
  6
CONTINUOUS
 62
    2
 10
336.9810260799046
 20
1085.3766809984163
 11
361.98102607990358
 21
1110.3766809984149
  0
LINE
  8
_0-3_
  6
CONTINUOUS
 62
    2
 10
196.68578701290016
 20
967.70885892937747
 11
221.68578701290107
 21
992.7088589293786
  0
LINE
  8
_0-3_
  6
CONTINUOUS
 62
    2
 10
314.35360908193683
 20
1085.3766809984144
 11
339.35360908193808
 21
1110.3766809984156
  0
LINE
  8
_0-3_
  6
CONTINUOUS
 62
    2
 10
196.68578701290198
 20
990.33627592735285
 11
221.68578701289902
 21
1015.33627592735
  0
LINE
  8
_0-3_
  6
CONTINUOUS
 62
    2
 10
291.72619208396531
 20
1085.3766809984163
 11
316.72619208396247
 21
1110.3766809984135
  0
LINE
  8
_0-3_
  6
CONTINUOUS
 62
    2
 10
196.6857870128997
 20
1012.9636929253167
 11
221.68578701290084
 21
1037.9636929253176
  0
LINE
  8
_0-3_
  6
CONTINUOUS
 62
    2
 10
269.09877508599765
 20
1085.3766809984144
 11
294.0987750859989
 21
1110.3766809984156
  0
LINE
  8
_0-3_
  6
CONTINUOUS
 62
    2
 10
196.68578701290175
 20
1035.5911099232921
 11
221.68578701289891
 21
1060.5911099232889
  0
LINE
  8
_0-3_
  6
CONTINUOUS
 62
    2
 10
246.47135808802613
 20
1085.3766809984165
 11
271.47135808802318
 21
1110.3766809984135
  0
LINE
  8
_0-3_
  6
CONTINUOUS
 62
    2
 10
196.68578701289948
 20
1058.2185269212559
 11
221.68578701290061
 21
1083.218526921257
  0
LINE
  8
_0-3_
  6
CONTINUOUS
 62
    2
 10
223.84394109005836
 20
1085.3766809984149
 11
248.84394109005961
 21
1110.3766809984158
  0
LINE
  8
_0-3_
  6
CONTINUOUS
 62
    2
 10
196.68578701290175
 20
1080.8459439192313
 11
226.216524092084
 21
1110.3766809984135
  0
LINE
  8
_0-3_
  6
CONTINUOUS
 62
    2
 10
196.68578701289925
 20
1103.4733609171946
 11
203.5891070941202
 21
1110.3766809984163
  0
LINE
  8
_0-3_
  6
CONTINUOUS
 62
    2
 10
1321.6857870129013
 20
757.69125604917735
 11
1329.8712119621384
 21
765.87668099841482
  0
LINE
  8
_0-3_
  6
CONTINUOUS
 62
    2
 10
1334.8712119621384
 20
770.87668099841494
 11
1346.6857870128994
 21
782.69125604917553
  0
LINE
  8
_0-3_
  6
CONTINUOUS
 62
    2
 10
1128.9406210088384
 20
1085.3766809984144
 11
1135.8524536795673
 21
1092.2885136691425
  0
LINE
  8
_0-3_
  6
CONTINUOUS
 62
    2
 10
1140.8524536795673
 20
1097.2885136691425
 11
1153.9406210088404
 21
1110.3766809984163
  0
LINE
  8
_0-3_
  6
CONTINUOUS
 62
    2
 10
766.90194904132533
 20
1085.3766809984158
 11
769.18578701290027
 21
1087.6605189699912
  0
LINE
  8
_0-3_
  6
CONTINUOUS
 62
    2
 10
774.18578701290039
 20
1092.6605189699912
 11
791.90194904132374
 21
1110.3766809984144
  0
LINE
  8
_0-3_
  6
CONTINUOUS
 62
    2
 10
382.23586007584378
 20
1085.3766809984158
 11
402.5191203462337
 21
1105.6599412688055
  0
LINE
  8
_0-3_
  6
CONTINUOUS
 62
    2
 10
407.5191203462337
 20
1088.0325242708324
 11
429.86327707381661
 21
1110.3766809984153
  0
LINE
  8
_0-3_
  6
CONTINUOUS
 62
    2
 10
196.68578701289925
 20
764.06210594765298
 11
198.50036206366087
 21
765.87668099841471
  0
LINE
  8
_0-3_
  6
CONTINUOUS
 62
    2
 10
203.50036206366087
 20
770.87668099841471
 11
221.68578701290016
 21
789.062105947654
  0
LINE
  8
_0-3_
  6
CONTINUOUS
 62
    2
 10
196.68578701290016
 20
741.43468894968066
 11
221.12777906163432
 21
765.87668099841482
  0
LINE
  8
_0-3_
  6
CONTINUOUS
 62
    2
 10
1321.6857870129003
 20
451.37668099841448
 11
1140.8524536795673
 21
451.37668099841448
  0
LINE
  8
_0-3_
  6
CONTINUOUS
 62
    2
 10
1329.7824669316823
 20
426.3766809984167
 11
1346.6857870128994
 21
443.28000107963327
  0
LINE
  8
_0-3_
  6
CONTINUOUS
 62
    2
 10
1307.1550499337142
 20
426.37668099841488
 11
1332.1550499337154
 21
451.37668099841539
  0
LINE
  8
_0-3_
  6
CONTINUOUS
 62
    2
 10
1284.5276329357434
 20
426.37668099841675
 11
1309.5276329357413
 21
451.37668099841528
  0
LINE
  8
_0-3_
  6
CONTINUOUS
 62
    2
 10
1261.9002159377753
 20
426.37668099841499
 11
1286.9002159377764
 21
451.37668099841567
  0
LINE
  8
_0-3_
  6
CONTINUOUS
 62
    2
 10
1239.2727989398013
 20
426.37668099841488
 11
1264.2727989398024
 21
451.37668099841539
  0
LINE
  8
_0-3_
  6
CONTINUOUS
 62
    2
 10
1216.6453819418363
 20
426.37668099841516
 11
1241.6453819418363
 21
451.37668099841567
  0
LINE
  8
_0-3_
  6
CONTINUOUS
 62
    2
 10
1194.0179649438603
 20
426.37668099841317
 11
1219.0179649438614
 21
451.37668099841357
  0
LINE
  8
_0-3_
  6
CONTINUOUS
 62
    2
 10
1171.3905479458962
 20
426.37668099841539
 11
1196.3905479458974
 21
451.37668099841596
  0
LINE
  8
_0-3_
  6
CONTINUOUS
 62
    2
 10
1148.7631309479213
 20
426.37668099841346
 11
1173.7631309479224
 21
451.37668099841386
  0
LINE
  8
_0-3_
  6
CONTINUOUS
 62
    2
 10
1103.5082969519824
 20
426.37668099841368
 11
1128.5082969519833
 21
451.3766809984142
  0
LINE
  8
_0-3_
  6
CONTINUOUS
 62
    2
 10
1080.8808799540183
 20
426.37668099841567
 11
1105.8808799540163
 21
451.3766809984142
  0
LINE
  8
_0-3_
  6
CONTINUOUS
 62
    2
 10
1058.2534629560434
 20
426.37668099841386
 11
1083.2534629560434
 21
451.37668099841437
  0
LINE
  8
_0-3_
  6
CONTINUOUS
 62
    2
 10
1035.6260459580782
 20
426.3766809984159
 11
1060.6260459580773
 21
451.37668099841437
  0
LINE
  8
_0-3_
  6
CONTINUOUS
 62
    2
 10
1012.9986289601044
 20
426.3766809984142
 11
1037.9986289601044
 21
451.37668099841465
  0
LINE
  8
_0-3_
  6
CONTINUOUS
 62
    2
 10
990.37121196213934
 20
426.37668099841596
 11
1015.3712119621384
 21
451.37668099841459
  0
LINE
  8
_0-3_
  6
CONTINUOUS
 62
    2
 10
967.7437949641644
 20
426.37668099841368
 11
992.74379496416531
 21
451.37668099841437
  0
LINE
  8
_0-3_
  6
CONTINUOUS
 62
    2
 10
945.11637796620038
 20
426.37668099841619
 11
970.11637796619947
 21
451.37668099841465
  0
LINE
  8
_0-3_
  6
CONTINUOUS
 62
    2
 10
922.48896096822534
 20
426.37668099841386
 11
947.48896096822545
 21
451.37668099841448
  0
LINE
  8
_0-3_
  6
CONTINUOUS
 62
    2
 10
899.86154397026155
 20
426.37668099841636
 11
924.86154397025939
 21
451.37668099841488
  0
LINE
  8
_0-3_
  6
CONTINUOUS
 62
    2
 10
877.23412697228604
 20
426.37668099841397
 11
902.23412697228627
 21
451.37668099841459
  0
LINE
  8
_0-3_
  6
CONTINUOUS
 62
    2
 10
854.60670997432248
 20
426.37668099841658
 11
879.60670997432066
 21
451.37668099841499
  0
LINE
  8
_0-3_
  6
CONTINUOUS
 62
    2
 10
831.97929297635471
 20
426.37668099841488
 11
856.97929297635516
 21
451.37668099841539
  0
LINE
  8
_0-3_
  6
CONTINUOUS
 62
    2
 10
809.35187597838103
 20
426.37668099841459
 11
834.35187597838171
 21
451.37668099841516
  0
LINE
  8
_0-3_
  6
CONTINUOUS
 62
    2
 10
786.72445898041519
 20
426.37668099841499
 11
811.72445898041598
 21
451.37668099841556
  0
LINE
  8
_0-3_
  6
CONTINUOUS
 62
    2
 10
741.46962498447601
 20
426.37668099841499
 11
766.46962498447646
 21
451.37668099841567
  0
LINE
  8
_0-3_
  6
CONTINUOUS
 62
    2
 10
718.84220798650142
 20
426.37668099841386
 11
743.8422079865021
 21
451.37668099841448
  0
LINE
  8
_0-3_
  6
CONTINUOUS
 62
    2
 10
696.21479098853683
 20
426.37668099841528
 11
721.2147909885374
 21
451.37668099841579
  0
LINE
  8
_0-3_
  6
CONTINUOUS
 62
    2
 10
673.58737399056224
 20
426.3766809984142
 11
698.58737399056292
 21
451.37668099841465
  0
LINE
  8
_0-3_
  6
CONTINUOUS
 62
    2
 10
650.95995699259754
 20
426.37668099841556
 11
675.95995699259583
 21
451.37668099841386
  0
LINE
  8
_0-3_
  6
CONTINUOUS
 62
    2
 10
628.33253999462294
 20
426.37668099841448
 11
653.33253999462374
 21
451.37668099841499
  0
LINE
  8
_0-3_
  6
CONTINUOUS
 62
    2
 10
605.70512299665824
 20
426.37668099841567
 11
630.70512299665699
 21
451.3766809984142
  0
LINE
  8
_0-3_
  6
CONTINUOUS
 62
    2
 10
583.07770599868399
 20
426.37668099841465
 11
608.07770599868445
 21
451.37668099841528
  0
LINE
  8
_0-3_
  6
CONTINUOUS
 62
    2
 10
560.45028900071883
 20
426.37668099841567
 11
585.45028900071758
 21
451.3766809984142
  0
LINE
  8
_0-3_
  6
CONTINUOUS
 62
    2
 10
537.82287200274356
 20
426.37668099841346
 11
562.82287200274402
 21
451.3766809984142
  0
LINE
  8
_0-3_
  6
CONTINUOUS
 62
    2
 10
515.19545500477977
 20
426.37668099841596
 11
540.19545500477818
 21
451.37668099841448
  0
LINE
  8
_0-3_
  6
CONTINUOUS
 62
    2
 10
492.56803800680415
 20
426.37668099841368
 11
517.56803800680484
 21
451.37668099841437
  0
LINE
  8
_0-3_
  6
CONTINUOUS
 62
    2
 10
469.9406210088407
 20
426.37668099841619
 11
494.94062100883911
 21
451.37668099841459
  0
LINE
  8
_0-3_
  6
CONTINUOUS
 62
    2
 10
447.31320401086475
 20
426.3766809984138
 11
472.31320401086554
 21
451.37668099841448
  0
LINE
  8
_0-3_
  6
CONTINUOUS
 62
    2
 10
424.6857870129013
 20
426.37668099841636
 11
449.68578701289982
 21
451.37668099841488
  0
LINE
  8
_0-3_
  6
CONTINUOUS
 62
    2
 10
356.8035360189944
 20
426.37668099841488
 11
381.80353601899491
 21
451.37668099841528
  0
LINE
  8
_0-3_
  6
CONTINUOUS
 62
    2
 10
334.17611902102066
 20
426.37668099841459
 11
359.17611902102129
 21
451.37668099841499
  0
LINE
  8
_0-3_
  6
CONTINUOUS
 62
    2
 10
311.54870202305505
 20
426.37668099841499
 11
336.54870202305556
 21
451.37668099841556
  0
LINE
  8
_0-3_
  6
CONTINUOUS
 62
    2
 10
288.92128502508126
 20
426.37668099841437
 11
313.92128502508194
 21
451.37668099841499
  0
LINE
  8
_0-3_
  6
CONTINUOUS
 62
    2
 10
266.29386802711587
 20
426.37668099841499
 11
291.29386802711655
 21
451.37668099841567
  0
LINE
  8
_0-3_
  6
CONTINUOUS
 62
    2
 10
243.66645102914208
 20
426.37668099841465
 11
268.66645102914276
 21
451.37668099841528
  0
LINE
  8
_0-3_
  6
CONTINUOUS
 62
    2
 10
221.03903403117669
 20
426.37668099841528
 11
246.03903403117715
 21
451.37668099841567
  0
LINE
  8
_0-3_
  6
CONTINUOUS
 62
    2
 10
198.41161703320312
 20
426.37668099841499
 11
223.41161703320346
 21
451.37668099841556
  0
LINE
  8
_0-3_
  6
CONTINUOUS
 62
    2
 10
196.68578701290084
 20
447.27826797607889
 11
200.78420003523592
 21
451.37668099841386
  0
LINE
  8
_0-3_
  6
CONTINUOUS
 62
    2
 10
1126.1357139499573
 20
426.37668099841556
 11
1135.8524536795673
 21
436.0934207280249
  0
LINE
  8
_0-3_
  6
CONTINUOUS
 62
    2
 10
1140.8524536795673
 20
441.0934207280249
 11
1151.1357139499584
 21
451.37668099841619
  0
LINE
  8
_0-3_
  6
CONTINUOUS
 62
    2
 10
764.09704198244173
 20
426.37668099841465
 11
769.1857870129005
 21
431.46542602887348
  0
LINE
  8
_0-3_
  6
CONTINUOUS
 62
    2
 10
774.18578701290061
 20
436.46542602887348
 11
789.0970419824423
 21
451.37668099841539
  0
LINE
  8
_0-3_
  6
CONTINUOUS
 62
    2
 10
402.05837001493347
 20
426.37668099841459
 11
402.51912034623359
 21
426.83743132971466
  0
LINE
  8
_0-3_
  6
CONTINUOUS
 62
    2
 10
407.51912034623359
 20
431.83743132971466
 11
427.05837001493409
 21
451.37668099841528
  0
LINE
  8
_0-3_
  6
CONTINUOUS
 62
    2
 10
379.43095301696206
 20
426.37668099841658
 11
402.5191203462337
 21
449.46484832768817
  0
LINE
  8
_0-3_
  6
CONTINUOUS
 62
    2
 10
1512.3298707726153
 20
426.37668099841346
 11
1521.6857870129003
 21
435.73259723869887
  0
LINE
  8
_0-3_
  6
CONTINUOUS
 62
    2
 10
1489.7024537746412
 20
426.37668099841306
 11
1514.7024537746424
 21
451.3766809984138
  0
LINE
  8
_0-3_
  6
CONTINUOUS
 62
    2
 10
1467.0750367766763
 20
426.37668099841346
 11
1492.0750367766772
 21
451.3766809984142
  0
LINE
  8
_0-3_
  6
CONTINUOUS
 62
    2
 10
1421.8202027807362
 20
426.37668099841346
 11
1446.8202027807374
 21
451.3766809984142
  0
LINE
  8
_0-3_
  6
CONTINUOUS
 62
    2
 10
1411.6857870129013
 20
438.86968222854437
 11
1424.1927857827693
 21
451.37668099841215
  0
LINE
  8
_0-3_
  6
CONTINUOUS
 62
    2
 10
1449.0857870129004
 20
451.37668099841448
 11
1449.0857870129004
 21
444.07668099841447
  0
LINE
  8
_0-3_
  6
CONTINUOUS
 62
    2
 10
1449.0857870129004
 20
444.07668099841447
 11
1484.2857870129003
 21
444.07668099841447
  0
LINE
  8
_0-3_
  6
CONTINUOUS
 62
    2
 10
1484.2857870129003
 20
444.07668099841447
 11
1484.2857870129003
 21
451.37668099841448
  0
LINE
  8
_0-3_
  6
CONTINUOUS
 62
    2
 10
1449.0857870129004
 20
451.37668099841448
 11
1411.6857870129003
 21
451.37668099841448
  0
LINE
  8
_0-3_
  6
CONTINUOUS
 62
    2
 10
1521.6857870129003
 20
451.37668099841448
 11
1484.2857870129003
 21
451.37668099841448
  0
LINE
  8
_0-3_
  6
CONTINUOUS
 62
    2
 10
1444.4476197787034
 20
426.37668099841306
 11
1462.1476197787033
 21
444.07668099841447
  0
LINE
  8
_0-3_
  6
CONTINUOUS
 62
    2
 10
1512.3298707726153
 20
1085.376680998414
 11
1521.6857870129003
 21
1094.732597238699
  0
LINE
  8
_0-3_
  6
CONTINUOUS
 62
    2
 10
1489.7024537746412
 20
1085.3766809984135
 11
1514.7024537746424
 21
1110.3766809984144
  0
LINE
  8
_0-3_
  6
CONTINUOUS
 62
    2
 10
1421.8202027807362
 20
1085.376680998414
 11
1446.8202027807374
 21
1110.3766809984147
  0
LINE
  8
_0-3_
  6
CONTINUOUS
 62
    2
 10
1411.6857870129013
 20
1097.8696822285448
 11
1424.1927857827693
 21
1110.3766809984131
  0
LINE
  8
_0-3_
  6
CONTINUOUS
 62
    2
 10
1449.8857870129004
 20
1085.3766809984149
 11
1449.8857870129004
 21
1100.1766809984151
  0
LINE
  8
_0-3_
  6
CONTINUOUS
 62
    2
 10
1444.4476197787034
 20
1085.3766809984135
 11
1449.8857870129004
 21
1090.8148482326109
  0
LINE
  8
_0-3_
  6
CONTINUOUS
 62
    2
 10
1459.2476197787034
 20
1100.1766809984151
 11
1469.4476197787023
 21
1110.3766809984144
  0
LINE
  8
_0-3_
  6
CONTINUOUS
 62
    2
 10
1481.8750367766774
 20
1100.1766809984151
 11
1492.0750367766772
 21
1110.3766809984147
  0
LINE
  8
_0-3_
  6
CONTINUOUS
 62
    2
 10
1411.6857870129003
 20
1085.3766809984149
 11
1449.8857870129004
 21
1085.3766809984149
  0
LINE
  8
_0-3_
  6
CONTINUOUS
 62
    2
 10
1483.4857870129003
 20
1085.3766809984149
 11
1521.6857870129003
 21
1085.3766809984149
  0
LINE
  8
_0-3_
  6
CONTINUOUS
 62
    2
 10
1449.8857870129004
 20
1100.1766809984151
 11
1483.4857870129003
 21
1100.1766809984151
  0
LINE
  8
_0-3_
  6
CONTINUOUS
 62
    2
 10
1483.4857870129003
 20
1100.1766809984151
 11
1483.4857870129003
 21
1085.3766809984149
  0
TEXT
  8
_0-0_
 62
    7
 10
221.68578701290039
 20
311.37668099841528
 40
10
 41
1
 50
0
  1
平面　断面図
  0
ENDSEC
  0
EOF
