  0
SECTION
  2
HEADER
  9
$ACADVER
  1
AC1009
  9
$INSBASE
 10
0
 20
0
 30
0
  9
$EXTMIN
 10
0
 20
0
  9
$EXTMAX
 10
1680
 20
1188
  9
$LIMMIN
 10
0
 20
0
  9
$LIMMAX
 10
1680
 20
1188
  9
$LTSCALE
 40
4
  0
ENDSEC
  0
SECTION
  2
TABLES
  0
TABLE
  2
LTYPE
 70
     9
  0
LTYPE
  2
CONTINUOUS
 70
    64
  3
実線
 72
    65
 73
     0
 40
0.0
  0
LTYPE
  2
DASHED1
 70
    64
  3
--  --  --  --  --  --  --  --  
 72
    65
 73
     2
 40
2.5
 49
1.25
 49
-1.25
  0
LTYPE
  2
DASHED2
 70
    64
  3
----    ----    ----    ----    
 72
    65
 73
     2
 40
5.0
 49
2.5
 49
-2.5
  0
LTYPE
  2
DASHED3
 70
    64
  3
------  ------  ------  ------  
 72
    65
 73
     2
 40
5.0
 49
3.75
 49
-1.25
  0
LTYPE
  2
CENTER1
 70
    64
  3
----- - ----- - ----- - ----- - 
 72
    65
 73
     4
 40
10.0
 49
6.25
 49
-1.25
 49
1.25
 49
-1.25
  0
LTYPE
  2
CENTER2
 70
    64
  3
----------  --  ----------  --  
 72
    65
 73
     4
 40
20.0
 49
12.5
 49
-2.5
 49
2.5
 49
-2.5
  0
LTYPE
  2
PHANTOM1
 70
    64
  3
--- - - --- - - --- - - --- - - 
 72
    65
 73
     6
 40
10.0
 49
3.25
 49
-1.25
 49
1.25
 49
-1.25
 49
1.25
 49
-1.25
  0
LTYPE
  2
PHANTOM2
 70
    64
  3
--------  -  -  --------  -  -  
 72
    65
 73
     6
 40
20.0
 49
10.0
 49
-2.5
 49
1.25
 49
-2.5
 49
1.25
 49
-2.5
  0
LTYPE
  2
DOT
 70
    64
  3
-   -   -   -   -   -   -   -   
 72
    65
 73
     2
 40
2.5
 49
0.625
 49
-1.875
  0
LTYPE
  2
DUMMY
 70
    64
  3
ダミー
 72
    65
 73
     0
 40
0.0
  0
LTYPE
  2
RAND1
 70
    64
  3
ランダム線1
 72
    65
 73
     4
 40
10.0
 49
1.0
 49
-2.0
 49
3.0
 49
-4.0
  0
LTYPE
  2
RAND2
 70
    64
  3
ランダム線2
 72
    65
 73
     4
 40
14.0
 49
2.0
 49
-3.0
 49
4.0
 49
-5.0
  0
LTYPE
  2
RAND3
 70
    64
  3
ランダム線3
 72
    65
 73
     4
 40
18.0
 49
3.0
 49
-4.0
 49
5.0
 49
-6.0
  0
LTYPE
  2
RAND4
 70
    64
  3
ランダム線4
 72
    65
 73
     4
 40
22.0
 49
4.0
 49
-5.0
 49
6.0
 49
-7.0
  0
LTYPE
  2
RAND5
 70
    64
  3
ランダム線5
 72
    65
 73
     4
 40
26.0
 49
5.0
 49
-6.0
 49
7.0
 49
-8.0
  0
LTYPE
  2
LONG1
 70
    64
  3
----------  --  ----------  --  
 72
    65
 73
     4
 40
40.0
 49
32.5
 49
-2.5
 49
2.5
 49
-2.5
  0
LTYPE
  2
LONG2
 70
    64
  3
--------  -  -  --------  -  -  
 72
    65
 73
     6
 40
40.0
 49
30.0
 49
-2.5
 49
1.25
 49
-2.5
 49
1.25
 49
-2.5
  0
LTYPE
  2
LONG3
 70
    64
  3
+++++++++++++++..+++++++++++++++
 72
    65
 73
     2
 40
40.0
 49
37.5
 49
-2.5
  0
LTYPE
  2
LONG4
 70
    64
  3
+++++++++++++++..+++++++++++++++
 72
    65
 73
     2
 40
80.0
 49
75.0
 49
-5.0
  0
LTYPE
  2
LONG5
 70
    64
  3
----------  --  ----------  --  
 72
    65
 73
     4
 40
60.0
 49
37.5
 49
-7.5
 49
7.5
 49
-7.5
  0
LTYPE
  2
dashed
 70
   64
  3
-------   -------------   ------
 72
   65
 73
    2
 40
7.5
 49
6
 49
-1.5
  0
LTYPE
  2
dashed_spaced
 70
   64
  3
----        --------        ----
 72
   65
 73
    2
 40
12
 49
6
 49
-6
  0
LTYPE
  2
long_dashed_dotted
 70
   64
  3
------------- --- --------------
 72
   65
 73
    4
 40
15.25
 49
12
 49
-1.5
 49
0.25
 49
-1.5
  0
LTYPE
  2
long_dashed_double-dotted
 70
   64
  3
----------- --- --- ------------
 72
   65
 73
    6
 40
17
 49
12
 49
-1.5
 49
0.25
 49
-1.5
 49
0.25
 49
-1.5
  0
LTYPE
  2
long_dashed_triplicate-dotted
 70
   64
  3
--------- --- --- --- ----------
 72
   65
 73
    8
 40
18.75
 49
12
 49
-1.5
 49
0.25
 49
-1.5
 49
0.25
 49
-1.5
 49
0.25
 49
-1.5
  0
LTYPE
  2
dotted
 70
   64
  3
   -       -       -       -    
 72
   65
 73
    2
 40
1.75
 49
0.25
 49
-1.5
  0
LTYPE
  2
chain
 70
   64
  3
-------------- -- --------------
 72
   65
 73
    4
 40
18.5
 49
12
 49
-1.5
 49
3.5
 49
-1.5
  0
LTYPE
  2
chain_double_dash
 70
   64
  3
------------ -- -- -------------
 72
   65
 73
    6
 40
23.5
 49
12
 49
-1.5
 49
3.5
 49
-1.5
 49
3.5
 49
-1.5
  0
LTYPE
  2
dashed_dotted
 70
   64
  3
-----------     -     ----------
 72
   65
 73
    4
 40
9.25
 49
6
 49
-1.5
 49
0.25
 49
-1.5
  0
LTYPE
  2
double-dashed_dotted
 70
   64
  3
------   -----------   -   -----
 72
   65
 73
    6
 40
16.75
 49
6
 49
-1.5
 49
6
 49
-1.5
 49
0.25
 49
-1.5
  0
LTYPE
  2
dashed_double-dotted
 70
   64
  3
---------    -    -    ---------
 72
   65
 73
    6
 40
11
 49
6
 49
-1.5
 49
0.25
 49
-1.5
 49
0.25
 49
-1.5
  0
LTYPE
  2
double-dashed_double-dotted
 70
   64
  3
-----   ---------   -   -   ----
 72
   65
 73
    8
 40
18.5
 49
6
 49
-1.5
 49
6
 49
-1.5
 49
0.25
 49
-1.5
 49
0.25
 49
-1.5
  0
LTYPE
  2
dashed_triplicate-dotted
 70
   64
  3
-------    -    -    -    ------
 72
   65
 73
    8
 40
12.75
 49
6
 49
-1.5
 49
0.25
 49
-1.5
 49
0.25
 49
-1.5
 49
0.25
 49
-1.5
  0
LTYPE
  2
double-dashed_triplicate-dotted
 70
   64
  3
-----  ---------  -  -  -  -----
 72
   65
 73
   10
 40
20.25
 49
6
 49
-1.5
 49
6
 49
-1.5
 49
0.25
 49
-1.5
 49
0.25
 49
-1.5
 49
0.25
 49
-1.5
  0
LTYPE
  2
undefined
 70
   64
  3
--------------------------------
 72
   65
 73
    0
 40
0
  0
LTYPE
  2
_
 70
   64
  3
                                
 72
   65
 73
    0
 40
0
  0
LTYPE
  2
__18
 70
   64
  3
                                
 72
   65
 73
    0
 40
0
  0
LTYPE
  2
__19
 70
   64
  3
                                
 72
   65
 73
    0
 40
0
  0
LTYPE
  2
__20
 70
   64
  3
                                
 72
   65
 73
    0
 40
0
  0
LTYPE
  2
__21
 70
   64
  3
                                
 72
   65
 73
    0
 40
0
  0
LTYPE
  2
__22
 70
   64
  3
                                
 72
   65
 73
    0
 40
0
  0
LTYPE
  2
__23
 70
   64
  3
                                
 72
   65
 73
    0
 40
0
  0
LTYPE
  2
__24
 70
   64
  3
                                
 72
   65
 73
    0
 40
0
  0
LTYPE
  2
__25
 70
   64
  3
                                
 72
   65
 73
    0
 40
0
  0
LTYPE
  2
__26
 70
   64
  3
                                
 72
   65
 73
    0
 40
0
  0
LTYPE
  2
__27
 70
   64
  3
                                
 72
   65
 73
    0
 40
0
  0
LTYPE
  2
__28
 70
   64
  3
                                
 72
   65
 73
    0
 40
0
  0
LTYPE
  2
__29
 70
   64
  3
                                
 72
   65
 73
    0
 40
0
  0
LTYPE
  2
__30
 70
   64
  3
                                
 72
   65
 73
    0
 40
0
  0
LTYPE
  2
__31
 70
   64
  3
                                
 72
   65
 73
    0
 40
0
  0
LTYPE
  2
__32
 70
   64
  3
                                
 72
   65
 73
    0
 40
0
  0
ENDTAB
  0
TABLE
  2
STYLE
  5
3
100
AcDbSymbolTable
 70
     1
  0
STYLE
  5
10
100
AcDbSymbolTableRecord
100
AcDbTextStyleTableRecord
  2
STANDARD
 70
     0
 40
0.0
 41
1.0
 50
0.0
 71
     0
 42
0.2
  3
txt
  4
bigfont.shx
  0
STYLE
  5
26
100
AcDbSymbolTableRecord
100
AcDbTextStyleTableRecord
  2
TATEGAKI
 70
    68
 40
0.0
 41
1.0
 50
0.0
 71
     0
 42
1.0
  3
txt
  4
bigfont.shx
  0
ENDTAB
  0
TABLE
  2
LAYER
 70
    7
  0
LAYER
  2
_0-0_
 70
   64
 62
    7
  6
CONTINUOUS
  0
LAYER
  2
_0-1_
 70
   64
 62
    7
  6
CONTINUOUS
  0
LAYER
  2
_0-2_
 70
   64
 62
    7
  6
CONTINUOUS
  0
LAYER
  2
_0-3_
 70
   64
 62
    7
  6
CONTINUOUS
  0
LAYER
  2
_0-4_
 70
   64
 62
    7
  6
CONTINUOUS
  0
LAYER
  2
_0-f_
 70
   64
 62
    7
  6
CONTINUOUS
  0
LAYER
  2
ADD_LINE
 70
   64
 62
    7
  6
CONTINUOUS
  0
ENDTAB
  0
ENDSEC
  0
SECTION
  2
BLOCKS
  0
ENDSEC
  0
SECTION
  2
ENTITIES
  0
LINE
  8
_0-2_
  6
CONTINUOUS
 62
  132
 10
1548
 20
601.49999999999955
 11
1548
 21
904.99999999999977
  0
LINE
  8
_0-1_
  6
CONTINUOUS
 62
    7
 10
1535.25
 20
899.99999999999977
 11
1536.25
 21
899.99999999999977
  0
LINE
  8
_0-1_
  6
CONTINUOUS
 62
    7
 10
1544.5
 20
899.99999999999977
 11
1545.5
 21
899.99999999999977
  0
LINE
  8
_0-1_
  6
CONTINUOUS
 62
    7
 10
1553.75
 20
899.99999999999977
 11
1554.75
 21
899.99999999999977
  0
LINE
  8
_0-1_
  6
CONTINUOUS
 62
    7
 10
572.5
 20
899.99999999999977
 11
300
 21
899.99999999999977
  0
LINE
  8
_0-1_
  6
CONTINUOUS
 62
    7
 10
1122.5
 20
899.99999999999977
 11
577.5
 21
899.99999999999977
  0
LINE
  8
_0-1_
  6
CONTINUOUS
 62
    7
 10
1400
 20
899.99999999999977
 11
1127.5
 21
899.99999999999977
  0
LINE
  8
_0-0_
  6
CONTINUOUS
 62
    7
 10
30
 20
32
 11
1650
 21
32
  0
LINE
  8
_0-0_
  6
CONTINUOUS
 62
    7
 10
30
 20
356
 11
230
 21
356
  0
LINE
  8
_0-f_
  6
CONTINUOUS
 62
    7
 10
1490
 20
915.99999999999977
 11
1490
 21
940.99999999999932
  0
LINE
  8
_0-f_
  6
CONTINUOUS
 62
    7
 10
1491.5999999999985
 20
940.99999999999932
 11
1485.8041747888235
 21
940.99999999999932
  0
LINE
  8
_0-f_
  6
CONTINUOUS
 62
    7
 10
230
 20
956
 11
230
 21
756
  0
LINE
  8
_0-f_
  6
CONTINUOUS
 62
    7
 10
1650
 20
1156
 11
0
 21
1156
  0
LINE
  8
_0-f_
  6
CONTINUOUS
 62
    7
 10
1650
 20
1186
 11
1650
 21
1156
  0
LINE
  8
_0-f_
  6
CONTINUOUS
 62
    7
 10
1650
 20
1156
 11
1680
 21
1156
  0
LINE
  8
_0-f_
  6
CONTINUOUS
 62
    7
 10
30
 20
1186
 11
30
 21
2
  0
LINE
  8
_0-f_
  6
CONTINUOUS
 62
    7
 10
1650
 20
2
 11
1650
 21
1186
  0
LINE
  8
_0-f_
  6
CONTINUOUS
 62
    7
 10
1650
 20
32
 11
1540
 21
32
  0
LINE
  8
_0-f_
  6
CONTINUOUS
 62
    7
 10
1650
 20
142
 11
1650
 21
32
  0
LINE
  8
_0-f_
  6
CONTINUOUS
 62
    7
 10
1650
 20
142
 11
1650
 21
342
  0
LINE
  8
_0-f_
  6
CONTINUOUS
 62
    7
 10
1650
 20
1156
 11
1540
 21
1156
  0
LINE
  8
_0-f_
  6
CONTINUOUS
 62
    7
 10
1650
 20
956
 11
1650
 21
1156
  0
LINE
  8
_0-f_
  6
CONTINUOUS
 62
    7
 10
1450
 20
32
 11
1650
 21
32
  0
LINE
  8
_0-f_
  6
CONTINUOUS
 62
    7
 10
1650
 20
32
 11
1650
 21
142
  0
LINE
  8
_0-f_
  6
CONTINUOUS
 62
    7
 10
30
 20
32
 11
230
 21
32
  0
LINE
  8
_0-f_
  6
CONTINUOUS
 62
    7
 10
30
 20
142
 11
30
 21
32
  0
LINE
  8
_0-f_
  6
CONTINUOUS
 62
    7
 10
1650
 20
32
 11
1500
 21
32
  0
LINE
  8
_0-f_
  6
CONTINUOUS
 62
    7
 10
1650
 20
182
 11
1650
 21
32
  0
LINE
  8
_0-f_
  6
CONTINUOUS
 62
    7
 10
30
 20
1156
 11
230
 21
1156
  0
LINE
  8
_0-f_
  6
CONTINUOUS
 62
    7
 10
230
 20
1156
 11
230
 21
956
  0
LINE
  8
_0-f_
  6
CONTINUOUS
 62
    7
 10
230
 20
956
 11
30
 21
956
  0
LINE
  8
_0-f_
  6
CONTINUOUS
 62
    7
 10
30
 20
956
 11
30
 21
1156
  0
LINE
  8
_0-f_
  6
CONTINUOUS
 62
    7
 10
30
 20
956
 11
230
 21
956
  0
LINE
  8
_0-f_
  6
CONTINUOUS
 62
    7
 10
230
 20
756
 11
30
 21
756
  0
LINE
  8
_0-f_
  6
CONTINUOUS
 62
    7
 10
30
 20
756
 11
30
 21
956
  0
LINE
  8
_0-f_
  6
CONTINUOUS
 62
    7
 10
30
 20
756
 11
230
 21
756
  0
LINE
  8
_0-f_
  6
CONTINUOUS
 62
    7
 10
230
 20
756
 11
230
 21
556
  0
LINE
  8
_0-f_
  6
CONTINUOUS
 62
    7
 10
230
 20
556
 11
30
 21
556
  0
LINE
  8
_0-f_
  6
CONTINUOUS
 62
    7
 10
30
 20
556
 11
30
 21
756
  0
LINE
  8
_0-f_
  6
CONTINUOUS
 62
    7
 10
30
 20
556
 11
230
 21
556
  0
LINE
  8
_0-f_
  6
CONTINUOUS
 62
    7
 10
230
 20
556
 11
230
 21
356
  0
LINE
  8
_0-f_
  6
CONTINUOUS
 62
    7
 10
230
 20
356
 11
30
 21
356
  0
LINE
  8
_0-f_
  6
CONTINUOUS
 62
    7
 10
30
 20
356
 11
30
 21
556
  0
LINE
  8
_0-f_
  6
CONTINUOUS
 62
    7
 10
30
 20
356
 11
230
 21
356
  0
LINE
  8
_0-f_
  6
CONTINUOUS
 62
    7
 10
230
 20
356
 11
230
 21
156
  0
LINE
  8
_0-f_
  6
CONTINUOUS
 62
    7
 10
230
 20
156
 11
30
 21
156
  0
LINE
  8
_0-f_
  6
CONTINUOUS
 62
    7
 10
30
 20
156
 11
30
 21
356
  0
POINT
  8
_0-f_
 62
    7
 10
160.00000000000136
 20
131.99999999999818
  0
POINT
  8
_0-f_
 62
    7
 10
160.00000000000136
 20
41.999999999998181
  0
POINT
  8
_0-f_
 62
    7
 10
300
 20
142
  0
LINE
  8
_0-f_
  6
CONTINUOUS
 62
    7
 10
1545
 20
142
 11
1545
 21
1055.9999999999991
  0
POINT
  8
_0-f_
 62
    7
 10
1500
 20
1055.9999999999991
  0
POINT
  8
_0-f_
 62
    7
 10
1590
 20
1055.9999999999991
  0
POINT
  8
_0-f_
 62
    7
 10
1490
 20
281.9999999999992
  0
POINT
  8
_0-f_
 62
    7
 10
1600
 20
281.99999999999909
  0
POINT
  8
_0-f_
 62
    7
 10
1490
 20
915.99999999999977
  0
POINT
  8
_0-f_
 62
    7
 10
1600
 20
916.00000000000011
  0
POINT
  8
_0-f_
 62
    7
 10
270
 20
251.9999999999992
  0
POINT
  8
_0-f_
 62
    7
 10
275
 20
256.9999999999992
  0
POINT
  8
_0-f_
 62
    7
 10
300
 20
281.9999999999992
  0
POINT
  8
_0-f_
 62
    7
 10
270
 20
945.99999999999977
  0
POINT
  8
_0-f_
 62
    7
 10
275
 20
940.99999999999977
  0
POINT
  8
_0-f_
 62
    7
 10
300
 20
915.99999999999977
  0
POINT
  8
_0-f_
 62
    7
 10
1539.9999999999991
 20
131.99999999999795
  0
POINT
  8
_0-f_
 62
    7
 10
1539.9999999999991
 20
41.999999999997954
  0
POINT
  8
_0-f_
 62
    7
 10
1400
 20
142
  0
POINT
  8
_0-f_
 62
    7
 10
1430
 20
945.99999999999977
  0
POINT
  8
_0-f_
 62
    7
 10
1400
 20
915.99999999999977
  0
POINT
  8
_0-f_
 62
    7
 10
1425
 20
940.99999999999977
  0
POINT
  8
_0-f_
 62
    7
 10
1400
 20
281.9999999999992
  0
POINT
  8
_0-f_
 62
    7
 10
1425
 20
256.9999999999992
  0
POINT
  8
_0-f_
 62
    7
 10
1430
 20
251.9999999999992
  0
POINT
  8
_0-f_
 62
    7
 10
1500
 20
142.00000000000011
  0
POINT
  8
_0-f_
 62
    7
 10
1590
 20
142.00000000000011
  0
LINE
  8
_0-f_
  6
CONTINUOUS
 62
    7
 10
230
 20
1156
 11
430
 21
1156
  0
LINE
  8
_0-f_
  6
CONTINUOUS
 62
    7
 10
430
 20
1156
 11
430
 21
956
  0
LINE
  8
_0-f_
  6
CONTINUOUS
 62
    7
 10
430
 20
956
 11
230
 21
956
  0
LINE
  8
_0-f_
  6
CONTINUOUS
 62
    7
 10
230
 20
956
 11
230
 21
1156
  0
LINE
  8
_0-f_
  6
CONTINUOUS
 62
    7
 10
430
 20
1156
 11
630
 21
1156
  0
LINE
  8
_0-f_
  6
CONTINUOUS
 62
    7
 10
630
 20
1156
 11
630
 21
956
  0
LINE
  8
_0-f_
  6
CONTINUOUS
 62
    7
 10
430
 20
956
 11
430
 21
1156
  0
LINE
  8
_0-f_
  6
CONTINUOUS
 62
    7
 10
630
 20
1156
 11
830
 21
1156
  0
LINE
  8
_0-f_
  6
CONTINUOUS
 62
    7
 10
830
 20
1156
 11
830
 21
956
  0
LINE
  8
_0-f_
  6
CONTINUOUS
 62
    7
 10
830
 20
956
 11
630
 21
956
  0
LINE
  8
_0-f_
  6
CONTINUOUS
 62
    7
 10
630
 20
956
 11
630
 21
1156
  0
LINE
  8
_0-f_
  6
CONTINUOUS
 62
    7
 10
830
 20
1156
 11
1030
 21
1156
  0
LINE
  8
_0-f_
  6
CONTINUOUS
 62
    7
 10
1030
 20
1156
 11
1030
 21
956
  0
LINE
  8
_0-f_
  6
CONTINUOUS
 62
    7
 10
1030
 20
956
 11
830
 21
956
  0
LINE
  8
_0-f_
  6
CONTINUOUS
 62
    7
 10
830
 20
956
 11
830
 21
1156
  0
LINE
  8
_0-f_
  6
CONTINUOUS
 62
    7
 10
1030
 20
1156
 11
1230
 21
1156
  0
LINE
  8
_0-f_
  6
CONTINUOUS
 62
    7
 10
1230
 20
1156
 11
1230
 21
956
  0
LINE
  8
_0-f_
  6
CONTINUOUS
 62
    7
 10
1230
 20
956
 11
1030
 21
956
  0
LINE
  8
_0-f_
  6
CONTINUOUS
 62
    7
 10
1030
 20
956
 11
1030
 21
1156
  0
LINE
  8
_0-f_
  6
CONTINUOUS
 62
    7
 10
1230
 20
1156
 11
1430
 21
1156
  0
LINE
  8
_0-f_
  6
CONTINUOUS
 62
    7
 10
1430
 20
1156
 11
1430
 21
956
  0
LINE
  8
_0-f_
  6
CONTINUOUS
 62
    7
 10
1430
 20
956
 11
1230
 21
956
  0
LINE
  8
_0-f_
  6
CONTINUOUS
 62
    7
 10
1230
 20
956
 11
1230
 21
1156
  0
LINE
  8
_0-f_
  6
CONTINUOUS
 62
    7
 10
1400
 20
915.99999999999977
 11
1400
 21
281.9999999999992
  0
LINE
  8
_0-f_
  6
CONTINUOUS
 62
    7
 10
300
 20
281.9999999999992
 11
300
 21
915.99999999999977
  0
LINE
  8
_0-f_
  6
CONTINUOUS
 62
    7
 10
30
 20
1056
 11
1430
 21
1056
  0
LINE
  8
_0-f_
  6
CONTINUOUS
 62
    7
 10
130
 20
1156
 11
130
 21
156
  0
LINE
  8
_0-f_
  6
CONTINUOUS
 62
    7
 10
230
 20
856
 11
30
 21
856
  0
LINE
  8
_0-f_
  6
CONTINUOUS
 62
    7
 10
230
 20
656
 11
30
 21
656
  0
LINE
  8
_0-f_
  6
CONTINUOUS
 62
    7
 10
230
 20
556
 11
30
 21
556
  0
LINE
  8
_0-f_
  6
CONTINUOUS
 62
    7
 10
230
 20
456
 11
30
 21
456
  0
LINE
  8
_0-f_
  6
CONTINUOUS
 62
    7
 10
230
 20
356
 11
30
 21
356
  0
LINE
  8
_0-f_
  6
CONTINUOUS
 62
    7
 10
230
 20
256
 11
30
 21
256
  0
LINE
  8
_0-f_
  6
CONTINUOUS
 62
    7
 10
330
 20
1156
 11
330
 21
956
  0
LINE
  8
_0-f_
  6
CONTINUOUS
 62
    7
 10
430
 20
1156
 11
430
 21
956
  0
LINE
  8
_0-f_
  6
CONTINUOUS
 62
    7
 10
530
 20
1156
 11
530
 21
956
  0
LINE
  8
_0-f_
  6
CONTINUOUS
 62
    7
 10
630
 20
1156
 11
630
 21
956
  0
LINE
  8
_0-f_
  6
CONTINUOUS
 62
    7
 10
730
 20
1156
 11
730
 21
956
  0
LINE
  8
_0-f_
  6
CONTINUOUS
 62
    7
 10
830
 20
1156
 11
830
 21
956
  0
LINE
  8
_0-f_
  6
CONTINUOUS
 62
    7
 10
930
 20
1156
 11
930
 21
956
  0
LINE
  8
_0-f_
  6
CONTINUOUS
 62
    7
 10
1030
 20
1156
 11
1030
 21
956
  0
LINE
  8
_0-f_
  6
CONTINUOUS
 62
    7
 10
1130
 20
1156
 11
1130
 21
956
  0
LINE
  8
_0-f_
  6
CONTINUOUS
 62
    7
 10
1230
 20
1156
 11
1230
 21
956
  0
LINE
  8
_0-f_
  6
CONTINUOUS
 62
    7
 10
1330
 20
1156
 11
1330
 21
956
  0
LINE
  8
_0-f_
  6
CONTINUOUS
 62
    7
 10
1425
 20
940.99999999999977
 11
1425
 21
256.9999999999992
  0
LINE
  8
_0-f_
  6
CONTINUOUS
 62
    7
 10
275
 20
256.9999999999992
 11
275
 21
940.99999999999977
  0
LINE
  8
_0-f_
  6
CONTINUOUS
 62
    7
 10
270
 20
945.99999999999977
 11
270
 21
251.9999999999992
  0
LINE
  8
_0-f_
  6
CONTINUOUS
 62
    7
 10
1430
 20
251.9999999999992
 11
1430
 21
945.99999999999977
  0
POINT
  8
_0-f_
 62
    7
 10
0
 20
1186
  0
POINT
  8
_0-f_
 62
    7
 10
1680
 20
1186
  0
POINT
  8
_0-f_
 62
    7
 10
1680
 20
1186
  0
POINT
  8
_0-f_
 62
    7
 10
1680
 20
2
  0
POINT
  8
_0-f_
 62
    7
 10
0
 20
2
  0
LINE
  8
_0-f_
  6
CONTINUOUS
 62
    7
 10
0
 20
1186
 11
1680
 21
1186
  0
LINE
  8
_0-f_
  6
CONTINUOUS
 62
    7
 10
1680
 20
1186
 11
1680
 21
2
  0
LINE
  8
_0-f_
  6
CONTINUOUS
 62
    7
 10
1680
 20
2
 11
0
 21
2
  0
LINE
  8
_0-f_
  6
CONTINUOUS
 62
    7
 10
0
 20
2
 11
0
 21
1186
  0
LINE
  8
_0-f_
  6
CONTINUOUS
 62
    7
 10
230
 20
601.49999999999955
 11
1650
 21
601.49999999999955
  0
LINE
  8
_0-f_
  6
CONTINUOUS
 62
    7
 10
230
 20
596.49999999999955
 11
1650
 21
596.49999999999955
  0
LINE
  8
_0-f_
  6
CONTINUOUS
 62
    7
 10
852.5
 20
956
 11
852.5
 21
32
  0
LINE
  8
_0-f_
  6
CONTINUOUS
 62
    7
 10
847.5
 20
956
 11
847.5
 21
32
  0
LINE
  8
_0-f_
  6
CONTINUOUS
 62
    7
 10
1122.5
 20
956
 11
1122.5
 21
32
  0
LINE
  8
_0-f_
  6
CONTINUOUS
 62
    7
 10
1127.5
 20
956
 11
1127.5
 21
32
  0
LINE
  8
_0-f_
  6
CONTINUOUS
 62
    7
 10
572.5
 20
956
 11
572.5
 21
32
  0
LINE
  8
_0-f_
  6
CONTINUOUS
 62
    7
 10
577.5
 20
956
 11
577.5
 21
32
  0
LINE
  8
_0-f_
  6
CONTINUOUS
 62
    7
 10
1600
 20
916.00000000000011
 11
1600
 21
921.00000000000011
  0
LINE
  8
_0-f_
  6
CONTINUOUS
 62
    7
 10
1490
 20
915.99999999999977
 11
1490
 21
920.99999999999977
  0
LINE
  8
_0-f_
  6
CONTINUOUS
 62
    7
 10
1490
 20
920.99999999999977
 11
1600
 21
920.99999999999977
  0
LINE
  8
_0-0_
  6
CONTINUOUS
 62
    7
 10
30
 20
1156
 11
230
 21
1156
  0
LINE
  8
_0-0_
  6
CONTINUOUS
 62
    7
 10
230
 20
1156
 11
230
 21
956
  0
LINE
  8
_0-0_
  6
CONTINUOUS
 62
    7
 10
30
 20
956
 11
30
 21
1156
  0
LINE
  8
_0-0_
  6
CONTINUOUS
 62
    7
 10
30
 20
956
 11
230
 21
956
  0
LINE
  8
_0-0_
  6
CONTINUOUS
 62
    7
 10
230
 20
956
 11
230
 21
756
  0
LINE
  8
_0-0_
  6
CONTINUOUS
 62
    7
 10
230
 20
756
 11
30
 21
756
  0
LINE
  8
_0-0_
  6
CONTINUOUS
 62
    7
 10
30
 20
756
 11
30
 21
956
  0
LINE
  8
_0-0_
  6
CONTINUOUS
 62
    7
 10
230
 20
756
 11
230
 21
556
  0
LINE
  8
_0-0_
  6
CONTINUOUS
 62
    7
 10
30
 20
556
 11
230
 21
556
  0
LINE
  8
_0-0_
  6
CONTINUOUS
 62
    7
 10
230
 20
556
 11
230
 21
356
  0
TEXT
  8
_0-0_
 62
    7
 10
1398
 20
2
 40
28
 41
1
 50
0
  1
www.999shimano.com
  0
LINE
  8
_0-0_
  6
CONTINUOUS
 62
    7
 10
0
 20
1186
 11
1680
 21
1186
  0
LINE
  8
_0-0_
  6
CONTINUOUS
 62
    7
 10
1680
 20
1186
 11
1680
 21
2
  0
LINE
  8
_0-0_
  6
CONTINUOUS
 62
    7
 10
1680
 20
2
 11
0
 21
2
  0
LINE
  8
_0-0_
  6
CONTINUOUS
 62
    7
 10
0
 20
2
 11
0
 21
1186
  0
TEXT
  8
_0-0_
 62
    7
 10
30
 20
2
 40
28
 41
1
 50
0
  1
A-3 S=1/4
  0
LINE
  8
_0-f_
  6
CONTINUOUS
 62
    7
 10
1600
 20
281.99999999999909
 11
1620
 21
281.99999999999909
  0
LINE
  8
_0-f_
  6
CONTINUOUS
 62
    7
 10
1620
 20
281.99999999999909
 11
1620
 21
301.99999999999909
  0
LINE
  8
_0-f_
  6
CONTINUOUS
 62
    7
 10
1620
 20
301.99999999999909
 11
1600
 21
301.99999999999909
  0
LINE
  8
_0-f_
  6
CONTINUOUS
 62
    7
 10
1600
 20
301.99999999999909
 11
1600
 21
281.99999999999909
  0
LINE
  8
_0-f_
  6
CONTINUOUS
 62
    7
 10
1490
 20
281.9999999999992
 11
1470
 21
281.9999999999992
  0
LINE
  8
_0-f_
  6
CONTINUOUS
 62
    7
 10
1470
 20
281.9999999999992
 11
1470
 21
301.9999999999992
  0
LINE
  8
_0-f_
  6
CONTINUOUS
 62
    7
 10
1470
 20
301.9999999999992
 11
1490
 21
301.9999999999992
  0
LINE
  8
_0-f_
  6
CONTINUOUS
 62
    7
 10
1490
 20
301.9999999999992
 11
1490
 21
281.9999999999992
  0
POINT
  8
_0-f_
 62
    7
 10
1489.9999999999995
 20
256.99999999999898
  0
POINT
  8
_0-f_
 62
    7
 10
1600.0000000000014
 20
256.99999999999898
  0
LINE
  8
_0-f_
  6
CONTINUOUS
 62
    7
 10
1600.0000000000014
 20
256.99999999999898
 11
1610.0000000000014
 21
256.99999999999898
  0
LINE
  8
_0-f_
  6
CONTINUOUS
 62
    7
 10
1610.0000000000014
 20
256.99999999999898
 11
1610.0000000000014
 21
246.99999999999898
  0
LINE
  8
_0-f_
  6
CONTINUOUS
 62
    7
 10
1610.0000000000014
 20
246.99999999999898
 11
1600.0000000000014
 21
246.99999999999898
  0
LINE
  8
_0-f_
  6
CONTINUOUS
 62
    7
 10
1600.0000000000014
 20
246.99999999999898
 11
1600.0000000000014
 21
256.99999999999898
  0
LINE
  8
_0-f_
  6
CONTINUOUS
 62
    7
 10
1489.9999999999995
 20
256.99999999999898
 11
1479.9999999999995
 21
256.99999999999898
  0
LINE
  8
_0-f_
  6
CONTINUOUS
 62
    7
 10
1479.9999999999995
 20
256.99999999999898
 11
1479.9999999999995
 21
246.99999999999898
  0
LINE
  8
_0-f_
  6
CONTINUOUS
 62
    7
 10
1479.9999999999995
 20
246.99999999999898
 11
1489.9999999999995
 21
246.99999999999898
  0
LINE
  8
_0-f_
  6
CONTINUOUS
 62
    7
 10
1489.9999999999995
 20
246.99999999999898
 11
1489.9999999999995
 21
256.99999999999898
  0
LINE
  8
_0-f_
  6
CONTINUOUS
 62
    7
 10
1489.9999999999995
 20
256.99999999999898
 11
1469.9999999999995
 21
256.99999999999898
  0
LINE
  8
_0-f_
  6
CONTINUOUS
 62
    7
 10
1469.9999999999995
 20
256.99999999999898
 11
1469.9999999999995
 21
236.99999999999898
  0
LINE
  8
_0-f_
  6
CONTINUOUS
 62
    7
 10
1469.9999999999995
 20
236.99999999999898
 11
1489.9999999999995
 21
236.99999999999898
  0
LINE
  8
_0-f_
  6
CONTINUOUS
 62
    7
 10
1489.9999999999995
 20
236.99999999999898
 11
1489.9999999999995
 21
256.99999999999898
  0
LINE
  8
_0-f_
  6
CONTINUOUS
 62
    7
 10
1600.0000000000014
 20
256.99999999999898
 11
1620.0000000000014
 21
256.99999999999898
  0
LINE
  8
_0-f_
  6
CONTINUOUS
 62
    7
 10
1620.0000000000014
 20
256.99999999999898
 11
1620.0000000000014
 21
236.99999999999898
  0
LINE
  8
_0-f_
  6
CONTINUOUS
 62
    7
 10
1620.0000000000014
 20
236.99999999999898
 11
1600.0000000000014
 21
236.99999999999898
  0
LINE
  8
_0-f_
  6
CONTINUOUS
 62
    7
 10
1600.0000000000014
 20
236.99999999999898
 11
1600.0000000000014
 21
256.99999999999898
  0
LINE
  8
_0-f_
  6
CONTINUOUS
 62
    7
 10
1489.9999999999995
 20
256.99999999999898
 11
1479.9999999999995
 21
256.99999999999898
  0
LINE
  8
_0-f_
  6
CONTINUOUS
 62
    7
 10
1479.9999999999995
 20
256.99999999999898
 11
1479.9999999999995
 21
266.99999999999898
  0
LINE
  8
_0-f_
  6
CONTINUOUS
 62
    7
 10
1479.9999999999995
 20
266.99999999999898
 11
1489.9999999999995
 21
266.99999999999898
  0
LINE
  8
_0-f_
  6
CONTINUOUS
 62
    7
 10
1489.9999999999995
 20
266.99999999999898
 11
1489.9999999999995
 21
256.99999999999898
  0
LINE
  8
_0-f_
  6
CONTINUOUS
 62
    7
 10
1600.0000000000014
 20
256.99999999999898
 11
1610.0000000000014
 21
256.99999999999898
  0
LINE
  8
_0-f_
  6
CONTINUOUS
 62
    7
 10
1610.0000000000014
 20
256.99999999999898
 11
1610.0000000000014
 21
266.99999999999898
  0
LINE
  8
_0-f_
  6
CONTINUOUS
 62
    7
 10
1610.0000000000014
 20
266.99999999999898
 11
1600.0000000000014
 21
266.99999999999898
  0
LINE
  8
_0-f_
  6
CONTINUOUS
 62
    7
 10
1600.0000000000014
 20
266.99999999999898
 11
1600.0000000000014
 21
256.99999999999898
  0
LINE
  8
_0-f_
  6
CONTINUOUS
 62
    7
 10
1490
 20
281.9999999999992
 11
1500
 21
281.9999999999992
  0
LINE
  8
_0-f_
  6
CONTINUOUS
 62
    7
 10
1500
 20
281.9999999999992
 11
1500
 21
291.9999999999992
  0
LINE
  8
_0-f_
  6
CONTINUOUS
 62
    7
 10
1500
 20
291.9999999999992
 11
1490
 21
291.9999999999992
  0
LINE
  8
_0-f_
  6
CONTINUOUS
 62
    7
 10
1490
 20
291.9999999999992
 11
1490
 21
281.9999999999992
  0
LINE
  8
_0-f_
  6
CONTINUOUS
 62
    7
 10
1500
 20
281.9999999999992
 11
1510
 21
281.9999999999992
  0
LINE
  8
_0-f_
  6
CONTINUOUS
 62
    7
 10
1510
 20
281.9999999999992
 11
1510
 21
291.9999999999992
  0
LINE
  8
_0-f_
  6
CONTINUOUS
 62
    7
 10
1510
 20
291.9999999999992
 11
1500
 21
291.9999999999992
  0
LINE
  8
_0-f_
  6
CONTINUOUS
 62
    7
 10
1500
 20
291.9999999999992
 11
1500
 21
281.9999999999992
  0
LINE
  8
_0-f_
  6
CONTINUOUS
 62
    7
 10
1600
 20
281.99999999999909
 11
1610
 21
281.99999999999909
  0
LINE
  8
_0-f_
  6
CONTINUOUS
 62
    7
 10
1610
 20
281.99999999999909
 11
1610
 21
291.99999999999909
  0
LINE
  8
_0-f_
  6
CONTINUOUS
 62
    7
 10
1610
 20
291.99999999999909
 11
1600
 21
291.99999999999909
  0
LINE
  8
_0-f_
  6
CONTINUOUS
 62
    7
 10
1600
 20
291.99999999999909
 11
1600
 21
281.99999999999909
  0
LINE
  8
_0-f_
  6
CONTINUOUS
 62
    7
 10
1600
 20
916.00000000000011
 11
1610
 21
916.00000000000011
  0
LINE
  8
_0-f_
  6
CONTINUOUS
 62
    7
 10
1610
 20
916.00000000000011
 11
1610
 21
906.00000000000011
  0
LINE
  8
_0-f_
  6
CONTINUOUS
 62
    7
 10
1610
 20
906.00000000000011
 11
1600
 21
906.00000000000011
  0
LINE
  8
_0-f_
  6
CONTINUOUS
 62
    7
 10
1600
 20
906.00000000000011
 11
1600
 21
916.00000000000011
  0
LINE
  8
_0-f_
  6
CONTINUOUS
 62
    7
 10
1490
 20
915.99999999999977
 11
1480
 21
915.99999999999977
  0
LINE
  8
_0-f_
  6
CONTINUOUS
 62
    7
 10
1480
 20
915.99999999999977
 11
1480
 21
905.99999999999977
  0
LINE
  8
_0-f_
  6
CONTINUOUS
 62
    7
 10
1480
 20
905.99999999999977
 11
1490
 21
905.99999999999977
  0
LINE
  8
_0-f_
  6
CONTINUOUS
 62
    7
 10
1490
 20
905.99999999999977
 11
1490
 21
915.99999999999977
  0
LINE
  8
_0-f_
  6
CONTINUOUS
 62
    7
 10
1600
 20
916.00000000000011
 11
1600
 21
948.54581464902981
  0
LINE
  8
_0-f_
  6
CONTINUOUS
 62
    7
 10
1598.4000000000003
 20
941.00000000000011
 11
1603.6521280051979
 21
941.00000000000011
  0
LINE
  8
_0-f_
  6
CONTINUOUS
 62
    7
 10
1490
 20
940.99999999999932
 11
1470
 21
940.99999999999932
  0
LINE
  8
_0-f_
  6
CONTINUOUS
 62
    7
 10
1470
 20
940.99999999999932
 11
1470
 21
960.99999999999932
  0
LINE
  8
_0-f_
  6
CONTINUOUS
 62
    7
 10
1470
 20
960.99999999999932
 11
1490
 21
960.99999999999932
  0
LINE
  8
_0-f_
  6
CONTINUOUS
 62
    7
 10
1490
 20
960.99999999999932
 11
1490
 21
940.99999999999932
  0
LINE
  8
_0-f_
  6
CONTINUOUS
 62
    7
 10
1600
 20
941.00000000000011
 11
1620
 21
941.00000000000011
  0
LINE
  8
_0-f_
  6
CONTINUOUS
 62
    7
 10
1620
 20
941.00000000000011
 11
1620
 21
961.00000000000011
  0
LINE
  8
_0-f_
  6
CONTINUOUS
 62
    7
 10
1620
 20
961.00000000000011
 11
1600
 21
961.00000000000011
  0
LINE
  8
_0-f_
  6
CONTINUOUS
 62
    7
 10
1600
 20
961.00000000000011
 11
1600
 21
941.00000000000011
  0
LINE
  8
_0-f_
  6
CONTINUOUS
 62
    7
 10
1600
 20
941.00000000000011
 11
1610
 21
941.00000000000011
  0
LINE
  8
_0-f_
  6
CONTINUOUS
 62
    7
 10
1610
 20
941.00000000000011
 11
1610
 21
951.00000000000011
  0
LINE
  8
_0-f_
  6
CONTINUOUS
 62
    7
 10
1610
 20
951.00000000000011
 11
1600
 21
951.00000000000011
  0
LINE
  8
_0-f_
  6
CONTINUOUS
 62
    7
 10
1600
 20
951.00000000000011
 11
1600
 21
941.00000000000011
  0
LINE
  8
_0-f_
  6
CONTINUOUS
 62
    7
 10
1490
 20
940.99999999999932
 11
1480
 21
940.99999999999932
  0
LINE
  8
_0-f_
  6
CONTINUOUS
 62
    7
 10
1480
 20
940.99999999999932
 11
1480
 21
950.99999999999932
  0
LINE
  8
_0-f_
  6
CONTINUOUS
 62
    7
 10
1480
 20
950.99999999999932
 11
1490
 21
950.99999999999932
  0
LINE
  8
_0-f_
  6
CONTINUOUS
 62
    7
 10
1490
 20
950.99999999999932
 11
1490
 21
940.99999999999932
  0
LINE
  8
_0-f_
  6
CONTINUOUS
 62
    7
 10
1600
 20
916.00000000000011
 11
1620
 21
916.00000000000011
  0
LINE
  8
_0-f_
  6
CONTINUOUS
 62
    7
 10
1620
 20
916.00000000000011
 11
1620
 21
896.00000000000011
  0
LINE
  8
_0-f_
  6
CONTINUOUS
 62
    7
 10
1620
 20
896.00000000000011
 11
1600
 21
896.00000000000011
  0
LINE
  8
_0-f_
  6
CONTINUOUS
 62
    7
 10
1600
 20
896.00000000000011
 11
1600
 21
916.00000000000011
  0
LINE
  8
_0-f_
  6
CONTINUOUS
 62
    7
 10
1490
 20
915.99999999999977
 11
1470
 21
915.99999999999977
  0
LINE
  8
_0-f_
  6
CONTINUOUS
 62
    7
 10
1470
 20
915.99999999999977
 11
1470
 21
895.99999999999977
  0
LINE
  8
_0-f_
  6
CONTINUOUS
 62
    7
 10
1470
 20
895.99999999999977
 11
1490
 21
895.99999999999977
  0
LINE
  8
_0-f_
  6
CONTINUOUS
 62
    7
 10
1490
 20
895.99999999999977
 11
1490
 21
915.99999999999977
  0
LINE
  8
_0-f_
  6
CONTINUOUS
 62
    7
 10
1400
 20
281.9999999999992
 11
1219.1666666666667
 21
281.9999999999992
  0
LINE
  8
_0-f_
  6
CONTINUOUS
 62
    7
 10
1425
 20
256.9999999999992
 11
1219.1666666666667
 21
256.9999999999992
  0
LINE
  8
_0-f_
  6
CONTINUOUS
 62
    7
 10
1219.1666666666667
 20
251.9999999999992
 11
1430
 21
251.9999999999992
  0
LINE
  8
_0-f_
  6
CONTINUOUS
 62
    7
 10
270
 20
251.9999999999992
 11
1214.1666666666667
 21
251.9999999999992
  0
LINE
  8
_0-f_
  6
CONTINUOUS
 62
    7
 10
1219.1666666666667
 20
940.99999999999977
 11
1425
 21
940.99999999999977
  0
LINE
  8
_0-f_
  6
CONTINUOUS
 62
    7
 10
1430
 20
945.99999999999977
 11
1219.1666666666667
 21
945.99999999999977
  0
LINE
  8
_0-f_
  6
CONTINUOUS
 62
    7
 10
1219.1666666666667
 20
915.99999999999977
 11
1400
 21
915.99999999999977
  0
LINE
  8
_0-f_
  6
CONTINUOUS
 62
    7
 10
1214.1666666666667
 20
945.99999999999977
 11
852.5
 21
945.99999999999977
  0
LINE
  8
_0-f_
  6
CONTINUOUS
 62
    7
 10
275
 20
940.99999999999977
 11
847.5
 21
940.99999999999977
  0
LINE
  8
_0-f_
  6
CONTINUOUS
 62
    7
 10
852.5
 20
940.99999999999977
 11
1214.1666666666667
 21
940.99999999999977
  0
LINE
  8
_0-f_
  6
CONTINUOUS
 62
    7
 10
300
 20
915.99999999999977
 11
847.5
 21
915.99999999999977
  0
LINE
  8
_0-f_
  6
CONTINUOUS
 62
    7
 10
852.5
 20
915.99999999999977
 11
1214.1666666666667
 21
915.99999999999977
  0
LINE
  8
_0-f_
  6
CONTINUOUS
 62
    7
 10
1127.5
 20
32
 11
1680
 21
32
  0
LINE
  8
_0-f_
  6
CONTINUOUS
 62
    7
 10
852.5
 20
32
 11
1122.5
 21
32
  0
LINE
  8
_0-f_
  6
CONTINUOUS
 62
    7
 10
0
 20
32
 11
480.83333333333337
 21
32
  0
LINE
  8
_0-f_
  6
CONTINUOUS
 62
    7
 10
485.83333333333337
 20
32
 11
847.5
 21
32
  0
LINE
  8
_0-f_
  6
CONTINUOUS
 62
    7
 10
480.83333333333337
 20
956
 11
430
 21
956
  0
LINE
  8
_0-f_
  6
CONTINUOUS
 62
    7
 10
630
 20
956
 11
485.83333333333337
 21
956
  0
LINE
  8
_0-f_
  6
CONTINUOUS
 62
    7
 10
480.83333333333337
 20
945.99999999999977
 11
275
 21
945.99999999999977
  0
LINE
  8
_0-f_
  6
CONTINUOUS
 62
    7
 10
847.5
 20
945.99999999999977
 11
485.83333333333337
 21
945.99999999999977
  0
LINE
  8
_0-f_
  6
CONTINUOUS
 62
    7
 10
130
 20
1056
 11
180
 21
1056
  0
LINE
  8
_0-f_
  6
CONTINUOUS
 62
    7
 10
180
 20
1056
 11
180
 21
1006
  0
LINE
  8
_0-f_
  6
CONTINUOUS
 62
    7
 10
180
 20
1006
 11
130
 21
1006
  0
LINE
  8
_0-f_
  6
CONTINUOUS
 62
    7
 10
130
 20
1006
 11
130
 21
1056
  0
LINE
  8
_0-f_
  6
CONTINUOUS
 62
    7
 10
130
 20
1056
 11
180
 21
1056
  0
LINE
  8
_0-f_
  6
CONTINUOUS
 62
    7
 10
180
 20
1056
 11
180
 21
1106
  0
LINE
  8
_0-f_
  6
CONTINUOUS
 62
    7
 10
180
 20
1106
 11
130
 21
1106
  0
LINE
  8
_0-f_
  6
CONTINUOUS
 62
    7
 10
130
 20
1106
 11
130
 21
1056
  0
LINE
  8
_0-f_
  6
CONTINUOUS
 62
    7
 10
130
 20
1056
 11
80
 21
1056
  0
LINE
  8
_0-f_
  6
CONTINUOUS
 62
    7
 10
80
 20
1056
 11
80
 21
1106
  0
LINE
  8
_0-f_
  6
CONTINUOUS
 62
    7
 10
80
 20
1106
 11
130
 21
1106
  0
LINE
  8
_0-f_
  6
CONTINUOUS
 62
    7
 10
130
 20
1106
 11
130
 21
1056
  0
LINE
  8
_0-f_
  6
CONTINUOUS
 62
    7
 10
130
 20
1056
 11
80
 21
1056
  0
LINE
  8
_0-f_
  6
CONTINUOUS
 62
    7
 10
80
 20
1056
 11
80
 21
1006
  0
LINE
  8
_0-f_
  6
CONTINUOUS
 62
    7
 10
80
 20
1006
 11
130
 21
1006
  0
LINE
  8
_0-f_
  6
CONTINUOUS
 62
    7
 10
130
 20
1006
 11
130
 21
1056
  0
LINE
  8
_0-f_
  6
CONTINUOUS
 62
    7
 10
130
 20
856
 11
180
 21
856
  0
LINE
  8
_0-f_
  6
CONTINUOUS
 62
    7
 10
180
 20
856
 11
180
 21
906
  0
LINE
  8
_0-f_
  6
CONTINUOUS
 62
    7
 10
180
 20
906
 11
130
 21
906
  0
LINE
  8
_0-f_
  6
CONTINUOUS
 62
    7
 10
130
 20
906
 11
130
 21
856
  0
LINE
  8
_0-f_
  6
CONTINUOUS
 62
    7
 10
130
 20
856
 11
180
 21
856
  0
LINE
  8
_0-f_
  6
CONTINUOUS
 62
    7
 10
180
 20
856
 11
180
 21
806
  0
LINE
  8
_0-f_
  6
CONTINUOUS
 62
    7
 10
180
 20
806
 11
130
 21
806
  0
LINE
  8
_0-f_
  6
CONTINUOUS
 62
    7
 10
130
 20
806
 11
130
 21
856
  0
LINE
  8
_0-f_
  6
CONTINUOUS
 62
    7
 10
130
 20
856
 11
80
 21
856
  0
LINE
  8
_0-f_
  6
CONTINUOUS
 62
    7
 10
80
 20
856
 11
80
 21
806
  0
LINE
  8
_0-f_
  6
CONTINUOUS
 62
    7
 10
80
 20
806
 11
130
 21
806
  0
LINE
  8
_0-f_
  6
CONTINUOUS
 62
    7
 10
130
 20
806
 11
130
 21
856
  0
LINE
  8
_0-f_
  6
CONTINUOUS
 62
    7
 10
130
 20
856
 11
80
 21
856
  0
LINE
  8
_0-f_
  6
CONTINUOUS
 62
    7
 10
80
 20
856
 11
80
 21
906
  0
LINE
  8
_0-f_
  6
CONTINUOUS
 62
    7
 10
80
 20
906
 11
130
 21
906
  0
LINE
  8
_0-f_
  6
CONTINUOUS
 62
    7
 10
130
 20
906
 11
130
 21
856
  0
LINE
  8
_0-f_
  6
CONTINUOUS
 62
    7
 10
130
 20
856
 11
160
 21
856
  0
LINE
  8
_0-f_
  6
CONTINUOUS
 62
    7
 10
160
 20
856
 11
160
 21
886
  0
LINE
  8
_0-f_
  6
CONTINUOUS
 62
    7
 10
160
 20
886
 11
130
 21
886
  0
LINE
  8
_0-f_
  6
CONTINUOUS
 62
    7
 10
130
 20
886
 11
130
 21
856
  0
LINE
  8
_0-f_
  6
CONTINUOUS
 62
    7
 10
130
 20
856
 11
160
 21
856
  0
LINE
  8
_0-f_
  6
CONTINUOUS
 62
    7
 10
160
 20
856
 11
160
 21
826
  0
LINE
  8
_0-f_
  6
CONTINUOUS
 62
    7
 10
160
 20
826
 11
130
 21
826
  0
LINE
  8
_0-f_
  6
CONTINUOUS
 62
    7
 10
130
 20
826
 11
130
 21
856
  0
LINE
  8
_0-f_
  6
CONTINUOUS
 62
    7
 10
130
 20
856
 11
100
 21
856
  0
LINE
  8
_0-f_
  6
CONTINUOUS
 62
    7
 10
100
 20
856
 11
100
 21
826
  0
LINE
  8
_0-f_
  6
CONTINUOUS
 62
    7
 10
100
 20
826
 11
130
 21
826
  0
LINE
  8
_0-f_
  6
CONTINUOUS
 62
    7
 10
130
 20
826
 11
130
 21
856
  0
LINE
  8
_0-f_
  6
CONTINUOUS
 62
    7
 10
130
 20
856
 11
100
 21
856
  0
LINE
  8
_0-f_
  6
CONTINUOUS
 62
    7
 10
100
 20
856
 11
100
 21
886
  0
LINE
  8
_0-f_
  6
CONTINUOUS
 62
    7
 10
100
 20
886
 11
130
 21
886
  0
LINE
  8
_0-f_
  6
CONTINUOUS
 62
    7
 10
130
 20
886
 11
130
 21
856
  0
LINE
  8
_0-f_
  6
CONTINUOUS
 62
    7
 10
130
 20
1056
 11
160
 21
1056
  0
LINE
  8
_0-f_
  6
CONTINUOUS
 62
    7
 10
160
 20
1056
 11
160
 21
1086
  0
LINE
  8
_0-f_
  6
CONTINUOUS
 62
    7
 10
160
 20
1086
 11
130
 21
1086
  0
LINE
  8
_0-f_
  6
CONTINUOUS
 62
    7
 10
130
 20
1086
 11
130
 21
1056
  0
LINE
  8
_0-f_
  6
CONTINUOUS
 62
    7
 10
130
 20
1056
 11
160
 21
1056
  0
LINE
  8
_0-f_
  6
CONTINUOUS
 62
    7
 10
160
 20
1056
 11
160
 21
1026
  0
LINE
  8
_0-f_
  6
CONTINUOUS
 62
    7
 10
160
 20
1026
 11
130
 21
1026
  0
LINE
  8
_0-f_
  6
CONTINUOUS
 62
    7
 10
130
 20
1026
 11
130
 21
1056
  0
LINE
  8
_0-f_
  6
CONTINUOUS
 62
    7
 10
130
 20
1056
 11
100
 21
1056
  0
LINE
  8
_0-f_
  6
CONTINUOUS
 62
    7
 10
100
 20
1056
 11
100
 21
1026
  0
LINE
  8
_0-f_
  6
CONTINUOUS
 62
    7
 10
100
 20
1026
 11
130
 21
1026
  0
LINE
  8
_0-f_
  6
CONTINUOUS
 62
    7
 10
130
 20
1026
 11
130
 21
1056
  0
LINE
  8
_0-f_
  6
CONTINUOUS
 62
    7
 10
130
 20
1056
 11
100
 21
1056
  0
LINE
  8
_0-f_
  6
CONTINUOUS
 62
    7
 10
100
 20
1056
 11
100
 21
1086
  0
LINE
  8
_0-f_
  6
CONTINUOUS
 62
    7
 10
100
 20
1086
 11
130
 21
1086
  0
LINE
  8
_0-f_
  6
CONTINUOUS
 62
    7
 10
130
 20
1086
 11
130
 21
1056
  0
LINE
  8
_0-f_
  6
CONTINUOUS
 62
    7
 10
130
 20
656
 11
160
 21
656
  0
LINE
  8
_0-f_
  6
CONTINUOUS
 62
    7
 10
160
 20
656
 11
160
 21
686
  0
LINE
  8
_0-f_
  6
CONTINUOUS
 62
    7
 10
160
 20
686
 11
130
 21
686
  0
LINE
  8
_0-f_
  6
CONTINUOUS
 62
    7
 10
130
 20
686
 11
130
 21
656
  0
LINE
  8
_0-f_
  6
CONTINUOUS
 62
    7
 10
130
 20
656
 11
100
 21
656
  0
LINE
  8
_0-f_
  6
CONTINUOUS
 62
    7
 10
100
 20
656
 11
100
 21
686
  0
LINE
  8
_0-f_
  6
CONTINUOUS
 62
    7
 10
100
 20
686
 11
130
 21
686
  0
LINE
  8
_0-f_
  6
CONTINUOUS
 62
    7
 10
130
 20
686
 11
130
 21
656
  0
LINE
  8
_0-f_
  6
CONTINUOUS
 62
    7
 10
130
 20
656
 11
100
 21
656
  0
LINE
  8
_0-f_
  6
CONTINUOUS
 62
    7
 10
100
 20
656
 11
100
 21
626
  0
LINE
  8
_0-f_
  6
CONTINUOUS
 62
    7
 10
100
 20
626
 11
130
 21
626
  0
LINE
  8
_0-f_
  6
CONTINUOUS
 62
    7
 10
130
 20
626
 11
130
 21
656
  0
LINE
  8
_0-f_
  6
CONTINUOUS
 62
    7
 10
130
 20
656
 11
160
 21
656
  0
LINE
  8
_0-f_
  6
CONTINUOUS
 62
    7
 10
160
 20
656
 11
160
 21
626
  0
LINE
  8
_0-f_
  6
CONTINUOUS
 62
    7
 10
160
 20
626
 11
130
 21
626
  0
LINE
  8
_0-f_
  6
CONTINUOUS
 62
    7
 10
130
 20
626
 11
130
 21
656
  0
LINE
  8
_0-f_
  6
CONTINUOUS
 62
    7
 10
130
 20
656
 11
180
 21
656
  0
LINE
  8
_0-f_
  6
CONTINUOUS
 62
    7
 10
180
 20
706
 11
130
 21
706
  0
LINE
  8
_0-f_
  6
CONTINUOUS
 62
    7
 10
130
 20
706
 11
130
 21
656
  0
LINE
  8
_0-f_
  6
CONTINUOUS
 62
    7
 10
130
 20
656
 11
180
 21
656
  0
LINE
  8
_0-f_
  6
CONTINUOUS
 62
    7
 10
180
 20
656
 11
180
 21
606
  0
LINE
  8
_0-f_
  6
CONTINUOUS
 62
    7
 10
130
 20
606
 11
130
 21
656
  0
LINE
  8
_0-f_
  6
CONTINUOUS
 62
    7
 10
130
 20
656
 11
80
 21
656
  0
LINE
  8
_0-f_
  6
CONTINUOUS
 62
    7
 10
80
 20
656
 11
80
 21
706
  0
LINE
  8
_0-f_
  6
CONTINUOUS
 62
    7
 10
80
 20
706
 11
130
 21
706
  0
LINE
  8
_0-f_
  6
CONTINUOUS
 62
    7
 10
130
 20
706
 11
130
 21
656
  0
LINE
  8
_0-f_
  6
CONTINUOUS
 62
    7
 10
130
 20
656
 11
80
 21
656
  0
LINE
  8
_0-f_
  6
CONTINUOUS
 62
    7
 10
80
 20
656
 11
80
 21
606
  0
LINE
  8
_0-f_
  6
CONTINUOUS
 62
    7
 10
80
 20
606
 11
130
 21
606
  0
LINE
  8
_0-f_
  6
CONTINUOUS
 62
    7
 10
130
 20
606
 11
130
 21
656
  0
LINE
  8
_0-f_
  6
CONTINUOUS
 62
    7
 10
180
 20
656
 11
160
 21
656
  0
LINE
  8
_0-f_
  6
CONTINUOUS
 62
    7
 10
130
 20
656
 11
180
 21
656
  0
LINE
  8
_0-f_
  6
CONTINUOUS
 62
    7
 10
180
 20
656
 11
180
 21
706
  0
LINE
  8
_0-f_
  6
CONTINUOUS
 62
    7
 10
180
 20
706
 11
130
 21
706
  0
LINE
  8
_0-f_
  6
CONTINUOUS
 62
    7
 10
130
 20
706
 11
130
 21
656
  0
LINE
  8
_0-f_
  6
CONTINUOUS
 62
    7
 10
130
 20
656
 11
180
 21
656
  0
LINE
  8
_0-f_
  6
CONTINUOUS
 62
    7
 10
180
 20
656
 11
180
 21
606
  0
LINE
  8
_0-f_
  6
CONTINUOUS
 62
    7
 10
180
 20
606
 11
130
 21
606
  0
LINE
  8
_0-f_
  6
CONTINUOUS
 62
    7
 10
130
 20
606
 11
130
 21
656
  0
LINE
  8
_0-f_
  6
CONTINUOUS
 62
    7
 10
130
 20
456
 11
180
 21
456
  0
LINE
  8
_0-f_
  6
CONTINUOUS
 62
    7
 10
180
 20
456
 11
180
 21
406
  0
LINE
  8
_0-f_
  6
CONTINUOUS
 62
    7
 10
180
 20
406
 11
130
 21
406
  0
LINE
  8
_0-f_
  6
CONTINUOUS
 62
    7
 10
130
 20
406
 11
130
 21
456
  0
LINE
  8
_0-f_
  6
CONTINUOUS
 62
    7
 10
130
 20
456
 11
180
 21
456
  0
LINE
  8
_0-f_
  6
CONTINUOUS
 62
    7
 10
180
 20
456
 11
180
 21
506
  0
LINE
  8
_0-f_
  6
CONTINUOUS
 62
    7
 10
180
 20
506
 11
130
 21
506
  0
LINE
  8
_0-f_
  6
CONTINUOUS
 62
    7
 10
130
 20
506
 11
130
 21
456
  0
LINE
  8
_0-f_
  6
CONTINUOUS
 62
    7
 10
130
 20
456
 11
80
 21
456
  0
LINE
  8
_0-f_
  6
CONTINUOUS
 62
    7
 10
80
 20
456
 11
80
 21
506
  0
LINE
  8
_0-f_
  6
CONTINUOUS
 62
    7
 10
80
 20
506
 11
130
 21
506
  0
LINE
  8
_0-f_
  6
CONTINUOUS
 62
    7
 10
130
 20
506
 11
130
 21
456
  0
LINE
  8
_0-f_
  6
CONTINUOUS
 62
    7
 10
130
 20
456
 11
80
 21
456
  0
LINE
  8
_0-f_
  6
CONTINUOUS
 62
    7
 10
80
 20
456
 11
80
 21
406
  0
LINE
  8
_0-f_
  6
CONTINUOUS
 62
    7
 10
80
 20
406
 11
130
 21
406
  0
LINE
  8
_0-f_
  6
CONTINUOUS
 62
    7
 10
130
 20
406
 11
130
 21
456
  0
LINE
  8
_0-f_
  6
CONTINUOUS
 62
    7
 10
130
 20
456
 11
160
 21
456
  0
LINE
  8
_0-f_
  6
CONTINUOUS
 62
    7
 10
160
 20
456
 11
160
 21
486
  0
LINE
  8
_0-f_
  6
CONTINUOUS
 62
    7
 10
160
 20
486
 11
130
 21
486
  0
LINE
  8
_0-f_
  6
CONTINUOUS
 62
    7
 10
130
 20
486
 11
130
 21
456
  0
LINE
  8
_0-f_
  6
CONTINUOUS
 62
    7
 10
130
 20
456
 11
100
 21
456
  0
LINE
  8
_0-f_
  6
CONTINUOUS
 62
    7
 10
100
 20
456
 11
100
 21
486
  0
LINE
  8
_0-f_
  6
CONTINUOUS
 62
    7
 10
100
 20
486
 11
130
 21
486
  0
LINE
  8
_0-f_
  6
CONTINUOUS
 62
    7
 10
130
 20
486
 11
130
 21
456
  0
LINE
  8
_0-f_
  6
CONTINUOUS
 62
    7
 10
130
 20
456
 11
100
 21
456
  0
LINE
  8
_0-f_
  6
CONTINUOUS
 62
    7
 10
100
 20
456
 11
100
 21
426
  0
LINE
  8
_0-f_
  6
CONTINUOUS
 62
    7
 10
100
 20
426
 11
130
 21
426
  0
LINE
  8
_0-f_
  6
CONTINUOUS
 62
    7
 10
130
 20
426
 11
130
 21
456
  0
LINE
  8
_0-f_
  6
CONTINUOUS
 62
    7
 10
130
 20
456
 11
160
 21
456
  0
LINE
  8
_0-f_
  6
CONTINUOUS
 62
    7
 10
160
 20
456
 11
160
 21
426
  0
LINE
  8
_0-f_
  6
CONTINUOUS
 62
    7
 10
160
 20
426
 11
130
 21
426
  0
LINE
  8
_0-f_
  6
CONTINUOUS
 62
    7
 10
130
 20
426
 11
130
 21
456
  0
LINE
  8
_0-0_
  6
CONTINUOUS
 62
    7
 10
30
 20
1156
 11
1650
 21
1156
  0
LINE
  8
_0-0_
  6
CONTINUOUS
 62
    7
 10
1650
 20
32
 11
1650
 21
1156
  0
LINE
  8
_0-0_
  6
CONTINUOUS
 62
    7
 10
30
 20
32
 11
30
 21
1156
  0
LINE
  8
_0-f_
  6
CONTINUOUS
 62
    7
 10
1545
 20
601.49999999999955
 11
1495
 21
601.49999999999955
  0
LINE
  8
_0-f_
  6
CONTINUOUS
 62
    7
 10
1495
 20
601.49999999999955
 11
1495
 21
651.49999999999955
  0
LINE
  8
_0-f_
  6
CONTINUOUS
 62
    7
 10
1495
 20
651.49999999999955
 11
1545
 21
651.49999999999955
  0
LINE
  8
_0-f_
  6
CONTINUOUS
 62
    7
 10
1495
 20
651.49999999999955
 11
1545
 21
651.49999999999955
  0
LINE
  8
_0-f_
  6
CONTINUOUS
 62
    7
 10
1545
 20
701.49999999999955
 11
1495
 21
701.49999999999955
  0
LINE
  8
_0-f_
  6
CONTINUOUS
 62
    7
 10
1495
 20
701.49999999999955
 11
1495
 21
651.49999999999955
  0
LINE
  8
_0-f_
  6
CONTINUOUS
 62
    7
 10
1495
 20
701.49999999999955
 11
1545
 21
701.49999999999955
  0
LINE
  8
_0-f_
  6
CONTINUOUS
 62
    7
 10
1545
 20
751.49999999999955
 11
1495
 21
751.49999999999955
  0
LINE
  8
_0-f_
  6
CONTINUOUS
 62
    7
 10
1495
 20
751.49999999999955
 11
1495
 21
701.49999999999955
  0
LINE
  8
_0-f_
  6
CONTINUOUS
 62
    7
 10
1545
 20
596.49999999999955
 11
1495
 21
596.49999999999955
  0
LINE
  8
_0-f_
  6
CONTINUOUS
 62
    7
 10
1495
 20
596.49999999999955
 11
1495
 21
546.49999999999955
  0
LINE
  8
_0-f_
  6
CONTINUOUS
 62
    7
 10
1495
 20
546.49999999999955
 11
1545
 21
546.49999999999955
  0
LINE
  8
_0-f_
  6
CONTINUOUS
 62
    7
 10
1545
 20
546.49999999999955
 11
1495
 21
546.49999999999955
  0
LINE
  8
_0-f_
  6
CONTINUOUS
 62
    7
 10
1495
 20
546.49999999999955
 11
1495
 21
496.49999999999949
  0
LINE
  8
_0-f_
  6
CONTINUOUS
 62
    7
 10
1495
 20
496.49999999999949
 11
1545
 21
496.49999999999949
  0
LINE
  8
_0-f_
  6
CONTINUOUS
 62
    7
 10
1545
 20
701.49999999999955
 11
1520
 21
701.49999999999955
  0
LINE
  8
_0-f_
  6
CONTINUOUS
 62
    7
 10
1520
 20
701.49999999999955
 11
1520
 21
726.49999999999955
  0
LINE
  8
_0-f_
  6
CONTINUOUS
 62
    7
 10
1520
 20
726.49999999999955
 11
1545
 21
726.49999999999955
  0
LINE
  8
_0-f_
  6
CONTINUOUS
 62
    7
 10
1545
 20
651.49999999999955
 11
1520
 21
651.49999999999955
  0
LINE
  8
_0-f_
  6
CONTINUOUS
 62
    7
 10
1520
 20
651.49999999999955
 11
1520
 21
676.49999999999955
  0
LINE
  8
_0-f_
  6
CONTINUOUS
 62
    7
 10
1520
 20
676.49999999999955
 11
1545
 21
676.49999999999955
  0
LINE
  8
_0-f_
  6
CONTINUOUS
 62
    7
 10
1545
 20
601.49999999999955
 11
1520
 21
601.49999999999955
  0
LINE
  8
_0-f_
  6
CONTINUOUS
 62
    7
 10
1520
 20
601.49999999999955
 11
1520
 21
626.49999999999955
  0
LINE
  8
_0-f_
  6
CONTINUOUS
 62
    7
 10
1520
 20
626.49999999999955
 11
1545
 21
626.49999999999955
  0
LINE
  8
_0-f_
  6
CONTINUOUS
 62
    7
 10
1545
 20
546.49999999999955
 11
1520
 21
546.49999999999955
  0
LINE
  8
_0-f_
  6
CONTINUOUS
 62
    7
 10
1520
 20
546.49999999999955
 11
1520
 21
571.49999999999955
  0
LINE
  8
_0-f_
  6
CONTINUOUS
 62
    7
 10
1520
 20
571.49999999999955
 11
1545
 21
571.49999999999955
  0
LINE
  8
_0-f_
  6
CONTINUOUS
 62
    7
 10
1545
 20
496.49999999999949
 11
1520
 21
496.49999999999949
  0
LINE
  8
_0-f_
  6
CONTINUOUS
 62
    7
 10
1520
 20
496.49999999999949
 11
1520
 21
521.49999999999955
  0
LINE
  8
_0-f_
  6
CONTINUOUS
 62
    7
 10
1520
 20
521.49999999999955
 11
1545
 21
521.49999999999955
  0
LINE
  8
_0-f_
  6
CONTINUOUS
 62
    7
 10
300
 20
1026
 11
360
 21
1026
  0
LINE
  8
_0-f_
  6
CONTINUOUS
 62
    7
 10
360
 20
1026
 11
360
 21
1086
  0
LINE
  8
_0-f_
  6
CONTINUOUS
 62
    7
 10
360
 20
1086
 11
300
 21
1086
  0
LINE
  8
_0-f_
  6
CONTINUOUS
 62
    7
 10
300
 20
1086
 11
300
 21
1026
  0
LINE
  8
_0-f_
  6
CONTINUOUS
 62
    7
 10
500
 20
1026
 11
560
 21
1026
  0
LINE
  8
_0-f_
  6
CONTINUOUS
 62
    7
 10
560
 20
1026
 11
560
 21
1086
  0
LINE
  8
_0-f_
  6
CONTINUOUS
 62
    7
 10
560
 20
1086
 11
500
 21
1086
  0
LINE
  8
_0-f_
  6
CONTINUOUS
 62
    7
 10
500
 20
1086
 11
500
 21
1026
  0
LINE
  8
_0-f_
  6
CONTINUOUS
 62
    7
 10
700
 20
1026
 11
760
 21
1026
  0
LINE
  8
_0-f_
  6
CONTINUOUS
 62
    7
 10
760
 20
1026
 11
760
 21
1086
  0
LINE
  8
_0-f_
  6
CONTINUOUS
 62
    7
 10
760
 20
1086
 11
700
 21
1086
  0
LINE
  8
_0-f_
  6
CONTINUOUS
 62
    7
 10
700
 20
1086
 11
700
 21
1026
  0
LINE
  8
_0-f_
  6
CONTINUOUS
 62
    7
 10
900
 20
1026
 11
960
 21
1026
  0
LINE
  8
_0-f_
  6
CONTINUOUS
 62
    7
 10
960
 20
1026
 11
960
 21
1086
  0
LINE
  8
_0-f_
  6
CONTINUOUS
 62
    7
 10
960
 20
1086
 11
900
 21
1086
  0
LINE
  8
_0-f_
  6
CONTINUOUS
 62
    7
 10
900
 20
1086
 11
900
 21
1026
  0
LINE
  8
_0-f_
  6
CONTINUOUS
 62
    7
 10
1100
 20
1026
 11
1160
 21
1026
  0
LINE
  8
_0-f_
  6
CONTINUOUS
 62
    7
 10
1160
 20
1026
 11
1160
 21
1086
  0
LINE
  8
_0-f_
  6
CONTINUOUS
 62
    7
 10
1160
 20
1086
 11
1100
 21
1086
  0
LINE
  8
_0-f_
  6
CONTINUOUS
 62
    7
 10
1100
 20
1086
 11
1100
 21
1026
  0
LINE
  8
_0-f_
  6
CONTINUOUS
 62
    7
 10
1300
 20
1026
 11
1360
 21
1026
  0
LINE
  8
_0-f_
  6
CONTINUOUS
 62
    7
 10
1360
 20
1026
 11
1360
 21
1086
  0
LINE
  8
_0-f_
  6
CONTINUOUS
 62
    7
 10
1360
 20
1086
 11
1300
 21
1086
  0
LINE
  8
_0-f_
  6
CONTINUOUS
 62
    7
 10
1300
 20
1086
 11
1300
 21
1026
  0
LINE
  8
_0-f_
  6
CONTINUOUS
 62
    7
 10
280
 20
1006
 11
380
 21
1006
  0
LINE
  8
_0-f_
  6
CONTINUOUS
 62
    7
 10
380
 20
1006
 11
380
 21
1106
  0
LINE
  8
_0-f_
  6
CONTINUOUS
 62
    7
 10
380
 20
1106
 11
280
 21
1106
  0
LINE
  8
_0-f_
  6
CONTINUOUS
 62
    7
 10
280
 20
1106
 11
280
 21
1006
  0
LINE
  8
_0-f_
  6
CONTINUOUS
 62
    7
 10
480
 20
1006
 11
580
 21
1006
  0
LINE
  8
_0-f_
  6
CONTINUOUS
 62
    7
 10
580
 20
1006
 11
580
 21
1106
  0
LINE
  8
_0-f_
  6
CONTINUOUS
 62
    7
 10
580
 20
1106
 11
480
 21
1106
  0
LINE
  8
_0-f_
  6
CONTINUOUS
 62
    7
 10
480
 20
1106
 11
480
 21
1006
  0
LINE
  8
_0-f_
  6
CONTINUOUS
 62
    7
 10
680
 20
1006
 11
780
 21
1006
  0
LINE
  8
_0-f_
  6
CONTINUOUS
 62
    7
 10
780
 20
1006
 11
780
 21
1106
  0
LINE
  8
_0-f_
  6
CONTINUOUS
 62
    7
 10
780
 20
1106
 11
680
 21
1106
  0
LINE
  8
_0-f_
  6
CONTINUOUS
 62
    7
 10
680
 20
1106
 11
680
 21
1006
  0
LINE
  8
_0-f_
  6
CONTINUOUS
 62
    7
 10
880
 20
1006
 11
980
 21
1006
  0
LINE
  8
_0-f_
  6
CONTINUOUS
 62
    7
 10
980
 20
1006
 11
980
 21
1106
  0
LINE
  8
_0-f_
  6
CONTINUOUS
 62
    7
 10
980
 20
1106
 11
880
 21
1106
  0
LINE
  8
_0-f_
  6
CONTINUOUS
 62
    7
 10
880
 20
1106
 11
880
 21
1006
  0
LINE
  8
_0-f_
  6
CONTINUOUS
 62
    7
 10
1080
 20
1006
 11
1180
 21
1006
  0
LINE
  8
_0-f_
  6
CONTINUOUS
 62
    7
 10
1180
 20
1006
 11
1180
 21
1106
  0
LINE
  8
_0-f_
  6
CONTINUOUS
 62
    7
 10
1180
 20
1106
 11
1080
 21
1106
  0
LINE
  8
_0-f_
  6
CONTINUOUS
 62
    7
 10
1080
 20
1106
 11
1080
 21
1006
  0
LINE
  8
_0-0_
  6
CONTINUOUS
 62
    7
 10
230
 20
1156
 11
430
 21
1156
  0
LINE
  8
_0-0_
  6
CONTINUOUS
 62
    7
 10
230
 20
956
 11
230
 21
1156
  0
LINE
  8
_0-0_
  6
CONTINUOUS
 62
    7
 10
430
 20
1156
 11
630
 21
1156
  0
LINE
  8
_0-f_
  6
CONTINUOUS
 62
    7
 10
1490
 20
301.9999999999992
 11
1470
 21
301.9999999999992
  0
LINE
  8
_0-f_
  6
CONTINUOUS
 62
    7
 10
1470
 20
301.9999999999992
 11
1470
 21
321.9999999999992
  0
LINE
  8
_0-f_
  6
CONTINUOUS
 62
    7
 10
1470
 20
321.9999999999992
 11
1490
 21
321.9999999999992
  0
LINE
  8
_0-f_
  6
CONTINUOUS
 62
    7
 10
1490
 20
321.9999999999992
 11
1490
 21
301.9999999999992
  0
LINE
  8
_0-f_
  6
CONTINUOUS
 62
    7
 10
1600
 20
301.99999999999909
 11
1620
 21
301.99999999999909
  0
LINE
  8
_0-f_
  6
CONTINUOUS
 62
    7
 10
1620
 20
301.99999999999909
 11
1620
 21
321.99999999999909
  0
LINE
  8
_0-f_
  6
CONTINUOUS
 62
    7
 10
1620
 20
321.99999999999909
 11
1600
 21
321.99999999999909
  0
LINE
  8
_0-f_
  6
CONTINUOUS
 62
    7
 10
1600
 20
321.99999999999909
 11
1600
 21
301.99999999999909
  0
LINE
  8
_0-f_
  6
CONTINUOUS
 62
    7
 10
1600
 20
321.99999999999909
 11
1620
 21
321.99999999999909
  0
LINE
  8
_0-f_
  6
CONTINUOUS
 62
    7
 10
1620
 20
321.99999999999909
 11
1620
 21
341.99999999999909
  0
LINE
  8
_0-f_
  6
CONTINUOUS
 62
    7
 10
1620
 20
341.99999999999909
 11
1600
 21
341.99999999999909
  0
LINE
  8
_0-f_
  6
CONTINUOUS
 62
    7
 10
1600
 20
341.99999999999909
 11
1600
 21
321.99999999999909
  0
LINE
  8
_0-f_
  6
CONTINUOUS
 62
    7
 10
1490
 20
321.9999999999992
 11
1470
 21
321.9999999999992
  0
LINE
  8
_0-f_
  6
CONTINUOUS
 62
    7
 10
1470
 20
321.9999999999992
 11
1470
 21
341.9999999999992
  0
LINE
  8
_0-f_
  6
CONTINUOUS
 62
    7
 10
1470
 20
341.9999999999992
 11
1490
 21
341.9999999999992
  0
LINE
  8
_0-f_
  6
CONTINUOUS
 62
    7
 10
1490
 20
341.9999999999992
 11
1490
 21
321.9999999999992
  0
LINE
  8
_0-0_
  6
CONTINUOUS
 62
    7
 10
30
 20
356
 11
30
 21
556
  0
LINE
  8
_0-0_
  6
CONTINUOUS
 62
    7
 10
30
 20
156
 11
30
 21
356
  0
LINE
  8
_0-0_
  6
CONTINUOUS
 62
    7
 10
30
 20
156
 11
30
 21
356
  0
LINE
  8
_0-3_
  6
CONTINUOUS
 62
   54
 10
1399.9999999999993
 20
610.94199204873371
 11
1425.0000000000007
 21
635.94199204873507
  0
LINE
  8
_0-3_
  6
CONTINUOUS
 62
   54
 10
1400.0000000000009
 20
633.56940904670148
 11
1424.9999999999991
 21
658.56940904669955
  0
LINE
  8
_0-3_
  6
CONTINUOUS
 62
   54
 10
1399.9999999999991
 20
656.19682604467289
 11
1425.0000000000007
 21
681.19682604467437
  0
LINE
  8
_0-3_
  6
CONTINUOUS
 62
   54
 10
1400.0000000000009
 20
678.82424304264066
 11
1424.9999999999989
 21
703.82424304263873
  0
LINE
  8
_0-3_
  6
CONTINUOUS
 62
   54
 10
1399.9999999999989
 20
701.45166004061207
 11
1425.0000000000005
 21
726.45166004061366
  0
LINE
  8
_0-3_
  6
CONTINUOUS
 62
   54
 10
1400.0000000000007
 20
724.07907703857984
 11
1424.9999999999986
 21
749.07907703857791
  0
LINE
  8
_0-3_
  6
CONTINUOUS
 62
   54
 10
1399.9999999999995
 20
746.70649403654488
 11
1424.9999999999998
 21
771.70649403654511
  0
LINE
  8
_0-3_
  6
CONTINUOUS
 62
   54
 10
1400.0000000000005
 20
769.33391103451902
 11
1424.9999999999984
 21
794.33391103451709
  0
LINE
  8
_0-3_
  6
CONTINUOUS
 62
   54
 10
1399.9999999999995
 20
791.96132803248429
 11
1424.9999999999998
 21
816.96132803248452
  0
LINE
  8
_0-3_
  6
CONTINUOUS
 62
   54
 10
1400.0000000000002
 20
814.58874503045831
 11
1424.9999999999982
 21
839.58874503045627
  0
LINE
  8
_0-3_
  6
CONTINUOUS
 62
   54
 10
1399.9999999999995
 20
837.2161620284237
 11
1424.9999999999995
 21
862.2161620284237
  0
LINE
  8
_0-3_
  6
CONTINUOUS
 62
   54
 10
1400
 20
859.84357902639749
 11
1425
 21
884.84357902639749
  0
LINE
  8
_0-3_
  6
CONTINUOUS
 62
   54
 10
1399.9999999999995
 20
882.4709960243631
 11
1424.9999999999995
 21
907.47099602436299
  0
LINE
  8
_0-3_
  6
CONTINUOUS
 62
   54
 10
1399.9999999999998
 20
905.09841302233667
 11
1424.9999999999998
 21
930.09841302233667
  0
LINE
  8
_0-3_
  6
CONTINUOUS
 62
   54
 10
1388.2741699796975
 20
916.00000000000034
 11
1413.2741699796973
 21
941.00000000000023
  0
LINE
  8
_0-3_
  6
CONTINUOUS
 62
   54
 10
1365.6467529817239
 20
916.00000000000023
 11
1390.6467529817219
 21
940.99999999999818
  0
LINE
  8
_0-3_
  6
CONTINUOUS
 62
   54
 10
1343.0193359837581
 20
916.00000000000045
 11
1368.0193359837583
 21
941.00000000000057
  0
LINE
  8
_0-3_
  6
CONTINUOUS
 62
   54
 10
1320.3919189857847
 20
916.00000000000034
 11
1345.3919189857827
 21
940.99999999999829
  0
LINE
  8
_0-3_
  6
CONTINUOUS
 62
   54
 10
1297.7645019878169
 20
915.99999999999864
 11
1322.7645019878189
 21
941.00000000000068
  0
LINE
  8
_0-3_
  6
CONTINUOUS
 62
   54
 10
1275.1370849898456
 20
916.00000000000057
 11
1300.1370849898433
 21
940.99999999999841
  0
LINE
  8
_0-3_
  6
CONTINUOUS
 62
   54
 10
1252.5096679918777
 20
915.99999999999886
 11
1277.5096679918797
 21
941.0000000000008
  0
LINE
  8
_0-3_
  6
CONTINUOUS
 62
   54
 10
1229.8822509939064
 20
916.0000000000008
 11
1254.8822509939041
 21
940.99999999999852
  0
LINE
  8
_0-3_
  6
CONTINUOUS
 62
   54
 10
1207.2548339959385
 20
915.99999999999909
 11
1232.2548339959403
 21
941.00000000000091
  0
LINE
  8
_0-3_
  6
CONTINUOUS
 62
   54
 10
1184.6274169979672
 20
916.00000000000102
 11
1209.6274169979647
 21
940.99999999999864
  0
LINE
  8
_0-3_
  6
CONTINUOUS
 62
   54
 10
1161.9999999999993
 20
915.99999999999932
 11
1187.0000000000011
 21
941.00000000000114
  0
LINE
  8
_0-3_
  6
CONTINUOUS
 62
   54
 10
1139.3725830020337
 20
915.99999999999966
 11
1164.3725830020335
 21
940.99999999999943
  0
LINE
  8
_0-3_
  6
CONTINUOUS
 62
   54
 10
1094.1177490060938
 20
915.99999999999932
 11
1119.1177490060941
 21
940.99999999999955
  0
LINE
  8
_0-3_
  6
CONTINUOUS
 62
   54
 10
1071.490332008121
 20
915.99999999999966
 11
1096.4903320081228
 21
941.00000000000159
  0
LINE
  8
_0-3_
  6
CONTINUOUS
 62
   54
 10
1048.8629150101547
 20
915.99999999999943
 11
1073.8629150101549
 21
940.99999999999977
  0
LINE
  8
_0-3_
  6
CONTINUOUS
 62
   54
 10
1026.2354980121818
 20
915.99999999999989
 11
1051.2354980121822
 21
941.00000000000023
  0
LINE
  8
_0-3_
  6
CONTINUOUS
 62
   54
 10
1003.6080810142153
 20
915.99999999999955
 11
1028.6080810142157
 21
941
  0
LINE
  8
_0-3_
  6
CONTINUOUS
 62
   54
 10
980.98066401624249
 20
916.00000000000011
 11
1005.9806640162428
 21
941.00000000000045
  0
LINE
  8
_0-3_
  6
CONTINUOUS
 62
   54
 10
958.35324701827597
 20
915.99999999999966
 11
983.35324701827653
 21
941.00000000000023
  0
LINE
  8
_0-3_
  6
CONTINUOUS
 62
   54
 10
935.72583002030331
 20
916.00000000000023
 11
960.72583002030376
 21
941.00000000000068
  0
LINE
  8
_0-3_
  6
CONTINUOUS
 62
   54
 10
913.09841302233667
 20
915.99999999999977
 11
938.09841302233724
 21
941.00000000000034
  0
LINE
  8
_0-3_
  6
CONTINUOUS
 62
   54
 10
890.47099602436401
 20
916.00000000000045
 11
915.47099602436242
 21
940.99999999999886
  0
LINE
  8
_0-3_
  6
CONTINUOUS
 62
   54
 10
867.84357902639636
 20
915.99999999999875
 11
892.84357902639795
 21
941.00000000000045
  0
LINE
  8
_0-3_
  6
CONTINUOUS
 62
   54
 10
845.21616202842495
 20
916.00000000000068
 11
870.21616202842324
 21
940.99999999999909
  0
LINE
  8
_0-3_
  6
CONTINUOUS
 62
   54
 10
822.58874503045706
 20
915.99999999999898
 11
847.58874503045877
 21
941.00000000000057
  0
LINE
  8
_0-3_
  6
CONTINUOUS
 62
   54
 10
799.96132803248565
 20
916.00000000000091
 11
824.96132803248304
 21
940.99999999999829
  0
LINE
  8
_0-3_
  6
CONTINUOUS
 62
   54
 10
777.33391103451788
 20
915.9999999999992
 11
802.33391103451947
 21
941.0000000000008
  0
LINE
  8
_0-3_
  6
CONTINUOUS
 62
   54
 10
754.70649403654647
 20
916.00000000000114
 11
779.70649403654375
 21
940.99999999999841
  0
LINE
  8
_0-3_
  6
CONTINUOUS
 62
   54
 10
732.0790770385787
 20
915.99999999999943
 11
757.07907703858018
 21
941.00000000000091
  0
LINE
  8
_0-3_
  6
CONTINUOUS
 62
   54
 10
709.45166004061298
 20
915.99999999999977
 11
734.45166004061241
 21
940.9999999999992
  0
LINE
  8
_0-3_
  6
CONTINUOUS
 62
   54
 10
686.82424304263941
 20
915.99999999999955
 11
711.824243042641
 21
941.00000000000114
  0
LINE
  8
_0-3_
  6
CONTINUOUS
 62
   54
 10
664.19682604467243
 20
915.99999999999864
 11
689.19682604467312
 21
940.99999999999932
  0
LINE
  8
_0-3_
  6
CONTINUOUS
 62
   54
 10
641.56940904670023
 20
915.99999999999977
 11
666.56940904670171
 21
941.00000000000125
  0
LINE
  8
_0-3_
  6
CONTINUOUS
 62
   54
 10
618.94199204873303
 20
915.99999999999864
 11
643.94199204873394
 21
940.99999999999955
  0
LINE
  8
_0-3_
  6
CONTINUOUS
 62
   54
 10
596.31457505076105
 20
916
 11
621.31457505076253
 21
941.00000000000148
  0
LINE
  8
_0-3_
  6
CONTINUOUS
 62
   54
 10
274.99999999999955
 20
617.31284194720456
 11
300.00000000000057
 21
642.3128419472057
  0
LINE
  8
_0-3_
  6
CONTINUOUS
 62
   54
 10
274.99999999999864
 20
639.94025894517699
 11
299.99999999999955
 21
664.9402589451779
  0
LINE
  8
_0-3_
  6
CONTINUOUS
 62
   54
 10
274.99999999999955
 20
662.56767594314397
 11
300.00000000000045
 21
687.56767594314488
  0
LINE
  8
_0-3_
  6
CONTINUOUS
 62
   54
 10
528.43232405685455
 20
915.99999999999898
 11
553.43232405685546
 21
940.99999999999989
  0
LINE
  8
_0-3_
  6
CONTINUOUS
 62
   54
 10
274.99999999999841
 20
685.19509294111629
 11
299.99999999999932
 21
710.1950929411172
  0
LINE
  8
_0-3_
  6
CONTINUOUS
 62
   54
 10
505.80490705888263
 20
916.00000000000045
 11
530.8049070588836
 21
941.00000000000136
  0
LINE
  8
_0-3_
  6
CONTINUOUS
 62
   54
 10
275.00000000000011
 20
707.82250993908406
 11
300.00000000000102
 21
732.82250993908497
  0
LINE
  8
_0-3_
  6
CONTINUOUS
 62
   54
 10
483.1774900609152
 20
915.99999999999909
 11
508.17749006091623
 21
941
  0
LINE
  8
_0-3_
  6
CONTINUOUS
 62
   54
 10
274.99999999999966
 20
730.44992693705683
 11
299.99999999999909
 21
755.44992693705626
  0
LINE
  8
_0-3_
  6
CONTINUOUS
 62
   54
 10
460.55007306294345
 20
916.00000000000068
 11
485.55007306294226
 21
940.99999999999943
  0
LINE
  8
_0-3_
  6
CONTINUOUS
 62
   54
 10
274.99999999999989
 20
753.07734393502312
 11
300.00000000000091
 21
778.07734393502415
  0
LINE
  8
_0-3_
  6
CONTINUOUS
 62
   54
 10
437.92265606497597
 20
915.9999999999992
 11
462.92265606497699
 21
941.00000000000023
  0
LINE
  8
_0-3_
  6
CONTINUOUS
 62
   54
 10
274.99999999999955
 20
775.70476093299612
 11
299.99999999999886
 21
800.70476093299555
  0
LINE
  8
_0-3_
  6
CONTINUOUS
 62
   54
 10
415.29523906700427
 20
916.00000000000091
 11
440.29523906700314
 21
940.99999999999977
  0
LINE
  8
_0-3_
  6
CONTINUOUS
 62
   54
 10
274.99999999999966
 20
798.3321779309623
 11
300.00000000000068
 21
823.33217793096333
  0
LINE
  8
_0-3_
  6
CONTINUOUS
 62
   54
 10
392.66782206903645
 20
915.99999999999909
 11
417.66782206903775
 21
941.00000000000045
  0
LINE
  8
_0-3_
  6
CONTINUOUS
 62
   54
 10
275.00000000000159
 20
820.95959492893758
 11
299.99999999999875
 21
845.95959492893473
  0
LINE
  8
_0-3_
  6
CONTINUOUS
 62
   54
 10
370.04040507106504
 20
916.00000000000102
 11
395.04040507106208
 21
940.99999999999807
  0
LINE
  8
_0-3_
  6
CONTINUOUS
 62
   54
 10
274.99999999999943
 20
843.58701192690148
 11
300.00000000000045
 21
868.58701192690251
  0
LINE
  8
_0-3_
  6
CONTINUOUS
 62
   54
 10
347.41298807309727
 20
915.99999999999932
 11
372.41298807309852
 21
941.00000000000057
  0
LINE
  8
_0-3_
  6
CONTINUOUS
 62
   54
 10
275.00000000000136
 20
866.21442892487687
 11
299.99999999999852
 21
891.21442892487391
  0
LINE
  8
_0-3_
  6
CONTINUOUS
 62
   54
 10
324.78557107512586
 20
916.00000000000125
 11
349.78557107512285
 21
940.99999999999818
  0
LINE
  8
_0-3_
  6
CONTINUOUS
 62
   54
 10
274.99999999999909
 20
888.84184592284055
 11
300.00000000000023
 21
913.84184592284169
  0
LINE
  8
_0-3_
  6
CONTINUOUS
 62
   54
 10
302.15815407715809
 20
915.99999999999955
 11
327.15815407715922
 21
941.00000000000068
  0
LINE
  8
_0-3_
  6
CONTINUOUS
 62
   54
 10
275.00000000000136
 20
911.46926292081616
 11
304.53073707918361
 21
940.99999999999841
  0
LINE
  8
_0-3_
  6
CONTINUOUS
 62
   54
 10
274.99999999999886
 20
934.09667991877973
 11
281.90332008121993
 21
941.00000000000091
  0
LINE
  8
_0-f_
  6
CONTINUOUS
 62
    7
 10
1214.1666666666667
 20
281.9999999999992
 11
1127.5
 21
281.9999999999992
  0
LINE
  8
_0-f_
  6
CONTINUOUS
 62
    7
 10
1122.5
 20
281.9999999999992
 11
300
 21
281.9999999999992
  0
LINE
  8
_0-f_
  6
CONTINUOUS
 62
    7
 10
1214.1666666666667
 20
256.9999999999992
 11
1127.5
 21
256.9999999999992
  0
LINE
  8
_0-f_
  6
CONTINUOUS
 62
    7
 10
1122.5
 20
256.9999999999992
 11
275
 21
256.9999999999992
  0
LINE
  8
_0-3_
  6
CONTINUOUS
 62
   54
 10
551.05974105482187
 20
916.00000000000023
 11
572.5
 21
937.44025894517836
  0
LINE
  8
_0-3_
  6
CONTINUOUS
 62
   54
 10
577.5
 20
919.81284194720502
 11
598.68715805279476
 21
940.99999999999977
  0
LINE
  8
_0-3_
  6
CONTINUOUS
 62
   54
 10
572.5
 20
915.99999999999977
 11
300
 21
915.99999999999977
  0
LINE
  8
_0-3_
  6
CONTINUOUS
 62
   54
 10
1116.7451660040601
 20
915.99999999999955
 11
1122.5
 21
921.75483399593941
  0
LINE
  8
_0-3_
  6
CONTINUOUS
 62
   54
 10
1127.5
 20
926.75483399593941
 11
1141.745166004062
 21
941.00000000000136
  0
LINE
  8
_0-3_
  6
CONTINUOUS
 62
   54
 10
1400
 20
915.99999999999977
 11
1127.5
 21
915.99999999999977
  0
LINE
  8
_0-3_
  6
CONTINUOUS
 62
   54
 10
1122.5
 20
915.99999999999977
 11
577.5
 21
915.99999999999977
  0
LINE
  8
_0-3_
  6
CONTINUOUS
 62
   54
 10
1413.1854249492385
 20
601.49999999999955
 11
1424.9999999999993
 21
613.31457505076037
  0
LINE
  8
_0-3_
  6
CONTINUOUS
 62
   54
 10
1400
 20
601.49999999999955
 11
1400
 21
915.99999999999977
  0
LINE
  8
_0-3_
  6
CONTINUOUS
 62
   54
 10
281.81457505076048
 20
601.49999999999943
 11
299.99999999999977
 21
619.68542494923872
  0
LINE
  8
_0-3_
  6
CONTINUOUS
 62
   54
 10
300
 20
915.99999999999977
 11
300
 21
601.49999999999955
  0
ARC
  8
_0-1_
  6
CONTINUOUS
 62
    7
 10
118.34053868555009
 20
464.7830093817995
 40
0.7999994023400754
 50
359.99995719571314
 51
90.000042804287077
  0
LINE
  8
_0-1_
  6
CONTINUOUS
 62
    7
 10
118.34053808788997
 20
465.58300878413934
 11
96.140538087889922
 21
465.58300878413934
  0
LINE
  8
_0-1_
  6
CONTINUOUS
 62
    7
 10
96.140538087889922
 20
465.58300878413934
 11
96.140538087889922
 21
447.38300878413929
  0
LINE
  8
_0-1_
  6
CONTINUOUS
 62
    7
 10
96.140538087889922
 20
447.38300878413929
 11
118.34053808788997
 21
447.38300878413929
  0
ARC
  8
_0-1_
  6
CONTINUOUS
 62
    7
 10
118.34053868555009
 20
448.18300818647913
 40
0.7999994023400754
 50
269.99995719571291
 51
0.000042804286875
  0
LINE
  8
_0-1_
  6
CONTINUOUS
 62
    7
 10
119.14053808788992
 20
448.18300878413925
 11
119.14053808788992
 21
464.78300878413927
  0
LINE
  8
_0-1_
  6
CONTINUOUS
 62
    7
 10
96.140538087889922
 20
459.98300878413932
 11
96.140538087889922
 21
452.98300878413932
  0
LINE
  8
_0-1_
  6
CONTINUOUS
 62
    7
 10
96.140538087889922
 20
452.98300878413932
 11
86.94053808788999
 21
452.98300878413932
  0
LINE
  8
_0-1_
  6
CONTINUOUS
 62
    7
 10
86.94053808788999
 20
452.98300878413932
 11
86.94053808788999
 21
459.98300878413932
  0
LINE
  8
_0-1_
  6
CONTINUOUS
 62
    7
 10
86.94053808788999
 20
459.98300878413932
 11
96.140538087889922
 21
459.98300878413932
  0
ARC
  8
_0-1_
  6
CONTINUOUS
 62
    7
 10
86.940537490229758
 20
459.18300938179948
 40
0.7999994023400789
 50
89.999957195713165
 51
180.00004280428709
  0
LINE
  8
_0-1_
  6
CONTINUOUS
 62
    7
 10
86.94053808788999
 20
459.98300878413932
 11
86.94053808788999
 21
452.98300878413932
  0
ARC
  8
_0-1_
  6
CONTINUOUS
 62
    7
 10
86.940537490229758
 20
453.78300818647915
 40
0.7999994023400754
 50
179.99995719571316
 51
270.00004280428715
  0
LINE
  8
_0-1_
  6
CONTINUOUS
 62
    7
 10
86.140538087889922
 20
453.78300878413927
 11
86.140538087889922
 21
459.18300878413925
  0
LINE
  8
_0-1_
  6
__21
 62
    7
 10
94.94053808788999
 20
459.98300878413932
 11
94.94053808788999
 21
452.98300878413932
  0
CIRCLE
  8
_0-1_
  6
CONTINUOUS
 62
    7
 10
172.14053808788992
 20
456.48300878413932
 40
9.0999999999999996
  0
CIRCLE
  8
_0-1_
  6
CONTINUOUS
 62
    7
 10
172.14053808788992
 20
456.48300878413932
 40
7.5999999999999996
  0
LINE
  8
_0-1_
  6
CONTINUOUS
 62
    7
 10
174.14053808788992
 20
456.88300878413929
 11
174.14053808788992
 21
457.88300878413929
  0
LINE
  8
_0-1_
  6
CONTINUOUS
 62
    7
 10
174.14053808788992
 20
457.88300878413929
 11
170.14053808788992
 21
457.88300878413929
  0
LINE
  8
_0-1_
  6
CONTINUOUS
 62
    7
 10
170.14053808788992
 20
457.88300878413929
 11
170.14053808788992
 21
456.88300878413929
  0
LINE
  8
_0-1_
  6
CONTINUOUS
 62
    7
 10
170.14053808788992
 20
456.88300878413929
 11
170.14053808788992
 21
449.15100878413932
  0
ARC
  8
_0-1_
  6
CONTINUOUS
 62
    7
 10
172.14053668604492
 20
456.47968488977335
 40
7.5966761056341445
 50
254.73564928225215
 51
270.00001057301944
  0
ARC
  8
_0-1_
  6
CONTINUOUS
 62
    7
 10
172.14063023780727
 20
456.47900766535292
 40
7.5959988817726005
 50
269.99930492336421
 51
285.26503522136409
  0
LINE
  8
_0-1_
  6
CONTINUOUS
 62
    7
 10
174.14053808788992
 20
449.15100878413932
 11
174.14053808788992
 21
456.88300878413929
  0
LINE
  8
_0-1_
  6
CONTINUOUS
 62
    7
 10
171.14053808788992
 20
457.88300878413929
 11
171.14053808788992
 21
450.88300878413929
  0
LINE
  8
_0-1_
  6
CONTINUOUS
 62
    7
 10
173.14053808788992
 20
457.88300878413929
 11
173.14053808788992
 21
450.88300878413929
  0
LINE
  8
_0-1_
  6
CONTINUOUS
 62
    7
 10
174.14053808788992
 20
450.88300878413929
 11
170.14053808788992
 21
450.88300878413929
  0
LINE
  8
_0-1_
  6
CONTINUOUS
 62
    7
 10
119.14053808788992
 20
464.08300878413934
 11
127.94053808788999
 21
464.08300878413934
  0
LINE
  8
_0-1_
  6
CONTINUOUS
 62
    7
 10
127.94053808788999
 20
464.08300878413934
 11
127.94053808788999
 21
448.88300878413929
  0
LINE
  8
_0-1_
  6
CONTINUOUS
 62
    7
 10
127.94053808788999
 20
448.88300878413929
 11
119.14053808788992
 21
448.88300878413929
  0
POINT
  8
_0-4_
 62
  132
 10
96.140538087889922
 20
406
  0
POINT
  8
_0-4_
 62
  132
 10
119.14053808788992
 20
406
  0
LINE
  8
_0-4_
  6
CONTINUOUS
 62
    7
 10
96.140538087889922
 20
406
 11
96.140538087889922
 21
426
  0
LINE
  8
_0-4_
  6
CONTINUOUS
 62
    7
 10
119.14053808788992
 20
406
 11
119.14053808788992
 21
426
  0
LINE
  8
_0-4_
  6
CONTINUOUS
 62
  132
 10
96.140538087889922
 20
406
 11
119.14053808788992
 21
406
  0
TEXT
  8
_0-4_
 62
    7
 10
90.140538087889922
 20
406
 40
16
 41
1
 50
0
  1
23.0
  0
POINT
  8
_0-4_
 62
  132
 10
96.140538087889922
 20
506
  0
POINT
  8
_0-4_
 62
  132
 10
86.140538087889922
 20
506
  0
LINE
  8
_0-4_
  6
CONTINUOUS
 62
    7
 10
96.140538087889922
 20
506
 11
96.140538087889922
 21
486
  0
LINE
  8
_0-4_
  6
CONTINUOUS
 62
    7
 10
86.140538087889922
 20
506
 11
86.140538087889922
 21
486
  0
POINT
  8
_0-4_
 62
  132
 10
119.14053808788992
 20
506
  0
POINT
  8
_0-4_
 62
  132
 10
127.94053808788999
 20
506
  0
LINE
  8
_0-4_
  6
CONTINUOUS
 62
    7
 10
119.14053808788992
 20
506
 11
119.14053808788992
 21
486
  0
LINE
  8
_0-4_
  6
CONTINUOUS
 62
    7
 10
127.94053808788999
 20
506
 11
127.94053808788999
 21
486
  0
LINE
  8
_0-4_
  6
CONTINUOUS
 62
  132
 10
119.14053808788992
 20
506
 11
127.94053808788999
 21
506
  0
TEXT
  8
_0-4_
 62
    7
 10
110.5405380878899
 20
506
 40
16
 41
1
 50
0
  1
8.8
  0
LINE
  8
_0-4_
  6
CONTINUOUS
 62
  132
 10
96.140538087889922
 20
506
 11
86.140538087889922
 21
506
  0
TEXT
  8
_0-4_
 62
    7
 10
62.5
 20
506
 40
16
 41
1
 50
0
  1
10.0
  0
POINT
  8
_0-4_
 62
  132
 10
163.05336567209167
 20
406
  0
POINT
  8
_0-4_
 62
  132
 10
181.22771050368817
 20
406
  0
LINE
  8
_0-4_
  6
CONTINUOUS
 62
    7
 10
163.05336567209167
 20
406
 11
163.05336567209167
 21
426
  0
LINE
  8
_0-4_
  6
CONTINUOUS
 62
    7
 10
181.22771050368817
 20
406
 11
181.22771050368817
 21
426
  0
LINE
  8
_0-4_
  6
CONTINUOUS
 62
  132
 10
163.05336567209167
 20
406
 11
181.22771050368817
 21
406
  0
TEXT
  8
_0-4_
 62
    7
 10
154.64053808788992
 20
406
 40
16
 41
1
 50
0
  1
18.2
  0
TEXT
  8
_0-0_
 62
    7
 10
30
 20
356
 40
20
 41
1
 50
0
  1
999-76873
  0
LINE
  8
_0-f_
  6
CONTINUOUS
 62
    7
 10
1400
 20
701.49999999999955
 11
1400
 21
676.49999999999955
  0
LINE
  8
_0-f_
  6
CONTINUOUS
 62
    7
 10
1400
 20
142
 11
300
 21
142
  0
LINE
  8
_0-f_
  6
CONTINUOUS
 62
    7
 10
1400
 20
87
 11
300
 21
87
  0
LINE
  8
_0-2_
  6
CONTINUOUS
 62
  132
 10
1110.5147935655416
 20
794.14682792150518
 11
936.13756936625327
 21
619.76960372221697
  0
LINE
  8
_0-2_
  6
CONTINUOUS
 62
  132
 10
558.01479356554159
 20
794.14682792150518
 11
383.63756936625327
 21
619.76960372221697
  0
LINE
  8
_0-3_
  6
CONTINUOUS
 62
   54
 10
300
 20
597.05800795126561
 11
300
 21
281.9999999999992
  0
LINE
  8
_0-3_
  6
CONTINUOUS
 62
   54
 10
573.2548339959385
 20
281.9999999999992
 11
275
 21
281.9999999999992
  0
LINE
  8
_0-3_
  6
CONTINUOUS
 62
   54
 10
1400
 20
281.9999999999992
 11
1400
 21
596.49999999999955
  0
LINE
  8
_0-3_
  6
CONTINUOUS
 62
   54
 10
300
 20
142
 11
300
 21
32
  0
LINE
  8
_0-3_
  6
CONTINUOUS
 62
   54
 10
1410.4692629208153
 20
282.00000000000051
 11
1424.9999999999991
 21
296.53073707918423
  0
LINE
  8
_0-3_
  6
CONTINUOUS
 62
   54
 10
1400.0000000000007
 20
294.15815407715928
 11
1424.9999999999991
 21
319.15815407715769
  0
LINE
  8
_0-3_
  6
CONTINUOUS
 62
   54
 10
1399.9999999999984
 20
316.78557107512296
 11
1424.9999999999991
 21
341.78557107512353
  0
LINE
  8
_0-3_
  6
CONTINUOUS
 62
   54
 10
1400.0000000000005
 20
339.41298807309846
 11
1424.9999999999989
 21
364.41298807309681
  0
LINE
  8
_0-3_
  6
CONTINUOUS
 62
   54
 10
1399.9999999999982
 20
362.04040507106231
 11
1424.9999999999989
 21
387.04040507106276
  0
LINE
  8
_0-3_
  6
CONTINUOUS
 62
   54
 10
1400.0000000000005
 20
384.66782206903764
 11
1425.0000000000009
 21
409.66782206903815
  0
LINE
  8
_0-3_
  6
CONTINUOUS
 62
   54
 10
1399.9999999999982
 20
407.29523906700166
 11
1424.9999999999986
 21
432.29523906700217
  0
LINE
  8
_0-3_
  6
CONTINUOUS
 62
   54
 10
1400
 20
429.92265606497688
 11
1425.0000000000005
 21
454.92265606497722
  0
LINE
  8
_0-3_
  6
CONTINUOUS
 62
   54
 10
1399.9999999999982
 20
452.55007306294101
 11
1424.9999999999986
 21
477.55007306294146
  0
LINE
  8
_0-3_
  6
CONTINUOUS
 62
   54
 10
1400
 20
475.17749006091606
 11
1425.0000000000005
 21
500.1774900609164
  0
LINE
  8
_0-3_
  6
CONTINUOUS
 62
   54
 10
1399.9999999999995
 20
497.80490705888167
 11
1425
 21
522.80490705888212
  0
LINE
  8
_0-3_
  6
CONTINUOUS
 62
   54
 10
1399.9999999999998
 20
520.43232405685524
 11
1425.0000000000009
 21
545.43232405685649
  0
LINE
  8
_0-3_
  6
CONTINUOUS
 62
   54
 10
1400.0000000000014
 20
543.05974105482301
 11
1424.9999999999995
 21
568.05974105482119
  0
LINE
  8
_0-3_
  6
CONTINUOUS
 62
   54
 10
1399.9999999999995
 20
565.68715805279442
 11
1425.0000000000009
 21
590.68715805279578
  0
LINE
  8
_0-3_
  6
CONTINUOUS
 62
   54
 10
279.09841302233531
 20
281.99999999999847
 11
300.00000000000136
 21
302.90158697766441
  0
LINE
  8
_0-3_
  6
CONTINUOUS
 62
   54
 10
274.99999999999864
 20
300.52900397563525
 11
299.99999999999932
 21
325.52900397563582
  0
LINE
  8
_0-3_
  6
CONTINUOUS
 62
   54
 10
275.00000000000045
 20
323.15642097360296
 11
300.00000000000091
 21
348.15642097360353
  0
LINE
  8
_0-3_
  6
CONTINUOUS
 62
   54
 10
274.99999999999864
 20
345.78383797157454
 11
299.99999999999909
 21
370.783837971575
  0
LINE
  8
_0-3_
  6
CONTINUOUS
 62
   54
 10
275.00000000000023
 20
368.4112549695422
 11
300.00000000000068
 21
393.41125496954271
  0
LINE
  8
_0-3_
  6
CONTINUOUS
 62
   54
 10
275.00000000000068
 20
391.038671967516
 11
299.99999999999886
 21
416.03867196751412
  0
LINE
  8
_0-3_
  6
CONTINUOUS
 62
   54
 10
274.99999999999977
 20
413.66608896548126
 11
300.00000000000045
 21
438.66608896548195
  0
LINE
  8
_0-3_
  6
CONTINUOUS
 62
   54
 10
275.00000000000045
 20
436.29350596345529
 11
299.99999999999864
 21
461.29350596345336
  0
LINE
  8
_0-3_
  6
CONTINUOUS
 62
   54
 10
274.99999999999955
 20
458.92092296142044
 11
300.00000000000045
 21
483.92092296142113
  0
LINE
  8
_0-3_
  6
CONTINUOUS
 62
   54
 10
275
 20
481.54833995938674
 11
299.99999999999864
 21
506.54833995938549
  0
LINE
  8
_0-3_
  6
CONTINUOUS
 62
   54
 10
274.99999999999955
 20
504.17575695735962
 11
300.00000000000023
 21
529.17575695736036
  0
LINE
  8
_0-3_
  6
CONTINUOUS
 62
   54
 10
274.99999999999977
 20
526.80317395532597
 11
300.00000000000068
 21
551.80317395532688
  0
LINE
  8
_0-3_
  6
CONTINUOUS
 62
   54
 10
274.99999999999909
 20
549.43059095329875
 11
300
 21
574.43059095329954
  0
LINE
  8
_0-3_
  6
CONTINUOUS
 62
   54
 10
1408.0966799187822
 20
257.00000000000131
 11
1424.9999999999989
 21
273.903320081218
  0
LINE
  8
_0-3_
  6
CONTINUOUS
 62
   54
 10
1385.4692629208143
 20
256.9999999999996
 11
1410.469262920815
 21
282.00000000000011
  0
LINE
  8
_0-3_
  6
CONTINUOUS
 62
   54
 10
1362.841845922843
 20
257.00000000000153
 11
1387.8418459228415
 21
282
  0
LINE
  8
_0-3_
  6
CONTINUOUS
 62
   54
 10
1340.2144289248752
 20
256.99999999999983
 11
1365.2144289248758
 21
282.00000000000034
  0
LINE
  8
_0-3_
  6
CONTINUOUS
 62
   54
 10
1317.5870119269016
 20
256.9999999999996
 11
1342.5870119269021
 21
282.00000000000011
  0
LINE
  8
_0-3_
  6
CONTINUOUS
 62
   54
 10
1294.959594928936
 20
256.99999999999994
 11
1319.9595949289364
 21
282.00000000000051
  0
LINE
  8
_0-3_
  6
CONTINUOUS
 62
   54
 10
1272.3321779309604
 20
256.99999999999784
 11
1297.3321779309611
 21
281.99999999999841
  0
LINE
  8
_0-3_
  6
CONTINUOUS
 62
   54
 10
1249.7047609329966
 20
257.00000000000011
 11
1274.7047609329973
 21
282.00000000000068
  0
LINE
  8
_0-3_
  6
CONTINUOUS
 62
   54
 10
1227.0773439350214
 20
256.99999999999818
 11
1252.0773439350219
 21
281.99999999999869
  0
LINE
  8
_0-3_
  6
CONTINUOUS
 62
   54
 10
1204.4499269370574
 20
257.00000000000028
 11
1229.4499269370581
 21
282.00000000000085
  0
LINE
  8
_0-3_
  6
CONTINUOUS
 62
   54
 10
1181.8225099390822
 20
256.99999999999841
 11
1206.8225099390827
 21
281.99999999999892
  0
LINE
  8
_0-3_
  6
CONTINUOUS
 62
   54
 10
1159.1950929411182
 20
257.0000000000004
 11
1184.1950929411166
 21
281.99999999999892
  0
LINE
  8
_0-3_
  6
CONTINUOUS
 62
   54
 10
1136.5676759431431
 20
256.99999999999864
 11
1161.5676759431435
 21
281.99999999999915
  0
LINE
  8
_0-3_
  6
CONTINUOUS
 62
   54
 10
1091.3128419472039
 20
256.99999999999892
 11
1116.3128419472046
 21
281.99999999999943
  0
LINE
  8
_0-3_
  6
CONTINUOUS
 62
   54
 10
1068.6854249492396
 20
257.00000000000074
 11
1093.685424949238
 21
281.99999999999926
  0
LINE
  8
_0-3_
  6
CONTINUOUS
 62
   54
 10
1046.058007951264
 20
256.99999999999841
 11
1071.0580079512647
 21
281.99999999999903
  0
LINE
  8
_0-3_
  6
CONTINUOUS
 62
   54
 10
1023.4305909533005
 20
257.00000000000085
 11
1048.4305909532991
 21
281.99999999999943
  0
LINE
  8
_0-3_
  6
CONTINUOUS
 62
   54
 10
1000.8031739553248
 20
256.99999999999858
 11
1025.8031739553253
 21
281.9999999999992
  0
LINE
  8
_0-3_
  6
CONTINUOUS
 62
   54
 10
978.17575695736116
 20
257.00000000000102
 11
1003.1757569573597
 21
281.99999999999955
  0
LINE
  8
_0-3_
  6
CONTINUOUS
 62
   54
 10
955.54833995938554
 20
256.99999999999875
 11
980.54833995938611
 21
281.99999999999937
  0
LINE
  8
_0-3_
  6
CONTINUOUS
 62
   54
 10
932.92092296142187
 20
257.00000000000119
 11
957.9209229614205
 21
281.99999999999977
  0
LINE
  8
_0-3_
  6
CONTINUOUS
 62
   54
 10
910.29350596345421
 20
256.99999999999955
 11
935.29350596345478
 21
282.00000000000011
  0
LINE
  8
_0-3_
  6
CONTINUOUS
 62
   54
 10
887.66608896548064
 20
256.99999999999932
 11
912.66608896548121
 21
281.99999999999989
  0
LINE
  8
_0-3_
  6
CONTINUOUS
 62
   54
 10
865.03867196751492
 20
256.99999999999966
 11
890.03867196751548
 21
282.00000000000028
  0
LINE
  8
_0-3_
  6
CONTINUOUS
 62
   54
 10
842.41125496954146
 20
256.99999999999955
 11
867.41125496954191
 21
282.00000000000011
  0
LINE
  8
_0-3_
  6
CONTINUOUS
 62
   54
 10
819.78383797157562
 20
256.99999999999983
 11
844.7838379715763
 21
282.00000000000045
  0
LINE
  8
_0-3_
  6
CONTINUOUS
 62
   54
 10
797.15642097360114
 20
256.99999999999875
 11
822.15642097360171
 21
281.9999999999992
  0
LINE
  8
_0-3_
  6
CONTINUOUS
 62
   54
 10
774.52900397563644
 20
257
 11
799.52900397563701
 21
282.00000000000057
  0
LINE
  8
_0-3_
  6
CONTINUOUS
 62
   54
 10
751.90158697766196
 20
256.99999999999892
 11
776.90158697766253
 21
281.99999999999943
  0
LINE
  8
_0-3_
  6
CONTINUOUS
 62
   54
 10
729.27416997969715
 20
257.00000000000017
 11
754.27416997969567
 21
281.99999999999864
  0
LINE
  8
_0-3_
  6
CONTINUOUS
 62
   54
 10
706.64675298172278
 20
256.9999999999992
 11
731.64675298172347
 21
281.99999999999977
  0
LINE
  8
_0-3_
  6
CONTINUOUS
 62
   54
 10
684.01933598375797
 20
257.00000000000034
 11
709.01933598375649
 21
281.99999999999886
  0
LINE
  8
_0-3_
  6
CONTINUOUS
 62
   54
 10
661.39191898578372
 20
256.99999999999943
 11
686.39191898578429
 21
282
  0
LINE
  8
_0-3_
  6
CONTINUOUS
 62
   54
 10
638.76450198781868
 20
257.00000000000051
 11
663.7645019878172
 21
281.99999999999898
  0
LINE
  8
_0-3_
  6
CONTINUOUS
 62
   54
 10
616.13708498984306
 20
256.99999999999824
 11
641.13708498984374
 21
281.99999999999886
  0
LINE
  8
_0-3_
  6
CONTINUOUS
 62
   54
 10
593.5096679918795
 20
257.00000000000074
 11
618.5096679918779
 21
281.9999999999992
  0
LINE
  8
_0-3_
  6
CONTINUOUS
 62
   54
 10
525.6274169979647
 20
256.99999999999858
 11
550.62741699796516
 21
281.9999999999992
  0
LINE
  8
_0-3_
  6
CONTINUOUS
 62
   54
 10
503.00000000000091
 20
257.00000000000102
 11
527.99999999999955
 21
281.99999999999949
  0
LINE
  8
_0-3_
  6
CONTINUOUS
 62
   54
 10
480.37258300203302
 20
256.99999999999926
 11
505.37258300203393
 21
281.99999999999994
  0
LINE
  8
_0-3_
  6
CONTINUOUS
 62
   54
 10
457.74516600406173
 20
257.00000000000119
 11
482.74516600406014
 21
281.9999999999996
  0
LINE
  8
_0-3_
  6
CONTINUOUS
 62
   54
 10
435.11774900609407
 20
256.99999999999949
 11
460.11774900609453
 21
282
  0
LINE
  8
_0-3_
  6
CONTINUOUS
 62
   54
 10
412.49033200812028
 20
256.99999999999926
 11
437.49033200812096
 21
281.99999999999983
  0
LINE
  8
_0-3_
  6
CONTINUOUS
 62
   54
 10
389.86291501015467
 20
256.99999999999966
 11
414.86291501015512
 21
282.00000000000017
  0
LINE
  8
_0-3_
  6
CONTINUOUS
 62
   54
 10
367.2354980121811
 20
256.99999999999932
 11
392.23549801218155
 21
281.99999999999977
  0
LINE
  8
_0-3_
  6
CONTINUOUS
 62
   54
 10
344.60808101421549
 20
256.99999999999983
 11
369.60808101421617
 21
282.00000000000045
  0
LINE
  8
_0-3_
  6
CONTINUOUS
 62
   54
 10
321.98066401624192
 20
256.99999999999949
 11
346.98066401624237
 21
282
  0
LINE
  8
_0-3_
  6
CONTINUOUS
 62
   54
 10
299.35324701827631
 20
256.99999999999994
 11
324.35324701827676
 21
282.00000000000051
  0
LINE
  8
_0-3_
  6
CONTINUOUS
 62
   54
 10
276.72583002030274
 20
256.99999999999977
 11
301.72583002030296
 21
282.00000000000023
  0
LINE
  8
_0-3_
  6
CONTINUOUS
 62
   54
 10
275.00000000000045
 20
277.90158697766356
 11
279.09841302233554
 21
281.99999999999864
  0
LINE
  8
_0-3_
  6
CONTINUOUS
 62
   54
 10
1113.9402589451788
 20
257.00000000000057
 11
1122.5
 21
265.55974105482164
  0
LINE
  8
_0-3_
  6
CONTINUOUS
 62
   54
 10
1127.5
 20
270.55974105482164
 11
1138.9402589451774
 21
281.99999999999909
  0
LINE
  8
_0-3_
  6
CONTINUOUS
 62
   54
 10
570.88225099390365
 20
256.99999999999835
 11
572.5
 21
258.61774900609464
  0
LINE
  8
_0-3_
  6
CONTINUOUS
 62
   54
 10
577.5
 20
263.61774900609464
 11
595.88225099390456
 21
281.99999999999903
  0
LINE
  8
_0-3_
  6
CONTINUOUS
 62
   54
 10
1122.5
 20
281.9999999999992
 11
577.5
 21
281.9999999999992
  0
LINE
  8
_0-3_
  6
CONTINUOUS
 62
   54
 10
548.25483399594032
 20
257.00000000000085
 11
572.5
 21
281.24516600406076
  0
LINE
  8
_0-3_
  6
CONTINUOUS
 62
   54
 10
1400.0000000000014
 20
588.31457505076219
 11
1408.1854249492385
 21
596.49999999999966
  0
LINE
  8
_0-3_
  6
CONTINUOUS
 62
   54
 10
274.99999999999886
 20
594.68542494923781
 11
276.8145750507606
 21
596.49999999999943
  0
LINE
  8
_0-3_
  6
CONTINUOUS
 62
   54
 10
274.99999999999955
 20
572.05800795126538
 11
299.44199204873394
 21
596.49999999999955
  0
LINE
  8
_0-3_
  6
CONTINUOUS
 62
   54
 10
1400
 20
142
 11
1400
 21
32
  0
LINE
  8
_0-3_
  6
CONTINUOUS
 62
   54
 10
1409.3708498984784
 20
32.000000000000227
 11
1430
 21
52.6291501015221
  0
LINE
  8
_0-3_
  6
CONTINUOUS
 62
   54
 10
1400
 20
45.256567099495328
 11
1430.0000000000002
 21
75.256567099495669
  0
LINE
  8
_0-3_
  6
CONTINUOUS
 62
   54
 10
1399.9999999999995
 20
67.883984097461052
 11
1430
 21
97.88398409746145
  0
LINE
  8
_0-3_
  6
CONTINUOUS
 62
   54
 10
1400
 20
90.511401095434678
 11
1430.0000000000002
 21
120.51140109543508
  0
LINE
  8
_0-3_
  6
CONTINUOUS
 62
   54
 10
1400.0000000000018
 20
113.13881809340256
 11
1428.8611819065991
 21
142
  0
LINE
  8
_0-3_
  6
CONTINUOUS
 62
   54
 10
1399.9999999999998
 20
135.76623509137409
 11
1406.2337649086257
 21
142.00000000000006
  0
LINE
  8
_0-3_
  6
CONTINUOUS
 62
   54
 10
278
 20
31.999999999999886
 11
300.00000000000045
 21
54.000000000000455
  0
LINE
  8
_0-3_
  6
CONTINUOUS
 62
   54
 10
270.00000000000159
 20
46.627416997967771
 11
299.99999999999909
 21
76.627416997965383
  0
LINE
  8
_0-3_
  6
CONTINUOUS
 62
   54
 10
270
 20
69.254833995939521
 11
300.00000000000045
 21
99.254833995939862
  0
LINE
  8
_0-3_
  6
CONTINUOUS
 62
   54
 10
270.00000000000068
 20
91.882250993906268
 11
300.00000000000045
 21
121.8822509939061
  0
LINE
  8
_0-3_
  6
CONTINUOUS
 62
   54
 10
270
 20
114.50966799187893
 11
297.49033200812073
 21
141.99999999999966
  0
LINE
  8
_0-3_
  6
CONTINUOUS
 62
   54
 10
269.99999999999977
 20
137.13708498984477
 11
274.86291501015535
 21
142.00000000000034
  0
LINE
  8
_0-3_
  6
CONTINUOUS
 62
   54
 10
1400
 20
281.9999999999992
 11
1127.5
 21
281.9999999999992
  0
LINE
  8
_0-2_
  6
CONTINUOUS
 62
  132
 10
1322.6468279215057
 20
582.01479356554091
 11
1148.2696037222177
 21
407.63756936625271
  0
LINE
  8
_0-2_
  6
CONTINUOUS
 62
  132
 10
770.14682792150575
 20
582.01479356554091
 11
595.76960372221765
 21
407.63756936625271
  0
LINE
  8
_0-3_
  6
CONTINUOUS
 62
   54
 10
1400
 20
281.9999999999992
 11
1425
 21
281.9999999999992
  0
LINE
  8
_0-2_
  6
CONTINUOUS
 62
  132
 10
301.20000000000005
 20
326.9999999999992
 11
301.20000000000005
 21
596.49999999999955
  0
LINE
  8
_0-2_
  6
CONTINUOUS
 62
  132
 10
1398.8
 20
326.9999999999992
 11
1398.8
 21
596.49999999999955
  0
LINE
  8
_0-1_
  6
CONTINUOUS
 62
    7
 10
139.75
 20
1056
 11
120.25
 21
1056
  0
LINE
  8
_0-1_
  6
CONTINUOUS
 62
    7
 10
120.25
 20
1056
 11
120.25
 21
1040
  0
LINE
  8
_0-1_
  6
CONTINUOUS
 62
    7
 10
120.25
 20
1040
 11
121.25
 21
1040
  0
LINE
  8
_0-1_
  6
CONTINUOUS
 62
    7
 10
121.25
 20
1040
 11
121.25
 21
1055
  0
LINE
  8
_0-1_
  6
CONTINUOUS
 62
    7
 10
121.25
 20
1055
 11
129.5
 21
1055
  0
LINE
  8
_0-1_
  6
CONTINUOUS
 62
    7
 10
129.5
 20
1055
 11
129.5
 21
1040
  0
LINE
  8
_0-1_
  6
CONTINUOUS
 62
    7
 10
129.5
 20
1040
 11
130.5
 21
1040
  0
LINE
  8
_0-1_
  6
CONTINUOUS
 62
    7
 10
130.5
 20
1040
 11
130.5
 21
1055
  0
LINE
  8
_0-1_
  6
CONTINUOUS
 62
    7
 10
130.5
 20
1055
 11
138.75
 21
1055
  0
LINE
  8
_0-1_
  6
CONTINUOUS
 62
    7
 10
138.75
 20
1055
 11
138.75
 21
1040
  0
LINE
  8
_0-1_
  6
CONTINUOUS
 62
    7
 10
138.75
 20
1040
 11
139.75
 21
1040
  0
LINE
  8
_0-1_
  6
CONTINUOUS
 62
    7
 10
139.75
 20
1040
 11
139.75
 21
1056
  0
POINT
  8
_0-4_
 62
  132
 10
180
 20
1056
  0
POINT
  8
_0-4_
 62
  132
 10
180
 20
1040
  0
LINE
  8
_0-4_
  6
CONTINUOUS
 62
    7
 10
180
 20
1056
 11
160
 21
1056
  0
LINE
  8
_0-4_
  6
CONTINUOUS
 62
    7
 10
180
 20
1040
 11
160
 21
1040
  0
LINE
  8
_0-4_
  6
CONTINUOUS
 62
  132
 10
180
 20
1056
 11
180
 21
1040
  0
TEXT
  8
_0-4_
 62
    7
 10
180
 20
1030.5
 40
16
 41
1
 50
90
  1
16.0
  0
POINT
  8
_0-4_
 62
  132
 10
120.25
 20
1106
  0
POINT
  8
_0-4_
 62
  132
 10
139.75
 20
1106
  0
LINE
  8
_0-4_
  6
CONTINUOUS
 62
    7
 10
120.25
 20
1106
 11
120.25
 21
1086
  0
LINE
  8
_0-4_
  6
CONTINUOUS
 62
    7
 10
139.75
 20
1106
 11
139.75
 21
1086
  0
LINE
  8
_0-4_
  6
CONTINUOUS
 62
  132
 10
120.25
 20
1106
 11
139.75
 21
1106
  0
TEXT
  8
_0-4_
 62
    7
 10
112.5
 20
1106
 40
16
 41
1
 50
0
  1
19.5
  0
TEXT
  8
_0-0_
 62
    7
 10
30
 20
956
 40
20
 41
1
 50
0
  1
999-02900
  0
LINE
  8
_0-3_
  6
CONTINUOUS
 62
   54
 10
1490
 20
915.99999999999977
 11
1600
 21
915.99999999999977
  0
LINE
  8
_0-3_
  6
CONTINUOUS
 62
   54
 10
1590.6440837597154
 20
915.99999999999875
 11
1600.0000000000009
 21
925.35591624028416
  0
LINE
  8
_0-3_
  6
CONTINUOUS
 62
   54
 10
1568.0166667617418
 20
915.99999999999841
 11
1593.0166667617423
 21
940.99999999999909
  0
LINE
  8
_0-3_
  6
CONTINUOUS
 62
   54
 10
1545.389249763776
 20
915.99999999999875
 11
1570.3892497637767
 21
940.99999999999943
  0
LINE
  8
_0-3_
  6
CONTINUOUS
 62
   54
 10
1522.7618327658024
 20
915.99999999999841
 11
1547.7618327658031
 21
940.99999999999909
  0
LINE
  8
_0-3_
  6
CONTINUOUS
 62
   54
 10
1500.1344157678366
 20
915.99999999999875
 11
1525.1344157678373
 21
940.99999999999943
  0
LINE
  8
_0-3_
  6
CONTINUOUS
 62
   54
 10
1490.0000000000014
 20
928.49300123012972
 11
1502.5069987698694
 21
940.9999999999975
  0
LINE
  8
_0-1_
  6
CONTINUOUS
 62
    7
 10
1554.75
 20
915.99999999999977
 11
1535.25
 21
915.99999999999977
  0
LINE
  8
_0-1_
  6
CONTINUOUS
 62
    7
 10
1535.25
 20
915.99999999999977
 11
1535.25
 21
899.99999999999977
  0
LINE
  8
_0-1_
  6
CONTINUOUS
 62
    7
 10
1536.25
 20
899.99999999999977
 11
1536.25
 21
914.99999999999977
  0
LINE
  8
_0-1_
  6
CONTINUOUS
 62
    7
 10
1536.25
 20
914.99999999999977
 11
1544.5
 21
914.99999999999977
  0
LINE
  8
_0-1_
  6
CONTINUOUS
 62
    7
 10
1544.5
 20
914.99999999999977
 11
1544.5
 21
899.99999999999977
  0
LINE
  8
_0-1_
  6
CONTINUOUS
 62
    7
 10
1545.5
 20
899.99999999999977
 11
1545.5
 21
914.99999999999977
  0
LINE
  8
_0-1_
  6
CONTINUOUS
 62
    7
 10
1545.5
 20
914.99999999999977
 11
1553.75
 21
914.99999999999977
  0
LINE
  8
_0-1_
  6
CONTINUOUS
 62
    7
 10
1553.75
 20
914.99999999999977
 11
1553.75
 21
899.99999999999977
  0
LINE
  8
_0-1_
  6
CONTINUOUS
 62
    7
 10
300.00362971513414
 20
324.9999999999992
 11
300
 21
324.9999999999992
  0
LINE
  8
_0-1_
  6
CONTINUOUS
 62
    7
 10
1400
 20
324.9999999999992
 11
1127.5
 21
324.9999999999992
  0
LINE
  8
_0-1_
  6
CONTINUOUS
 62
    7
 10
1122.5
 20
324.9999999999992
 11
577.5
 21
324.9999999999992
  0
LINE
  8
_0-1_
  6
CONTINUOUS
 62
    7
 10
572.5
 20
324.9999999999992
 11
300.00362971513414
 21
324.9999999999992
  0
LINE
  8
_0-1_
  6
CONTINUOUS
 62
    7
 10
1400
 20
284.9999999999992
 11
1127.5
 21
284.9999999999992
  0
LINE
  8
_0-1_
  6
CONTINUOUS
 62
    7
 10
1122.5
 20
284.9999999999992
 11
577.5
 21
284.9999999999992
  0
LINE
  8
_0-1_
  6
CONTINUOUS
 62
    7
 10
572.5
 20
284.9999999999992
 11
300
 21
284.9999999999992
  0
LINE
  8
_0-1_
  6
CONTINUOUS
 62
    7
 10
300
 20
284.9999999999992
 11
300
 21
324.9999999999992
  0
LINE
  8
_0-1_
  6
CONTINUOUS
 62
    7
 10
1400
 20
284.9999999999992
 11
1400
 21
324.9999999999992
  0
LINE
  8
_0-1_
  6
CONTINUOUS
 62
    7
 10
301.20000000000005
 20
324.9999999999992
 11
301.20000000000005
 21
284.9999999999992
  0
LINE
  8
_0-1_
  6
CONTINUOUS
 62
    7
 10
828.80000000000007
 20
324.9999999999992
 11
828.80000000000007
 21
284.9999999999992
  0
LINE
  8
_0-1_
  6
CONTINUOUS
 62
    7
 10
830
 20
324.9999999999992
 11
830
 21
284.9999999999992
  0
LINE
  8
_0-1_
  6
CONTINUOUS
 62
    7
 10
830
 20
284.9999999999992
 11
830
 21
324.9999999999992
  0
LINE
  8
_0-1_
  6
CONTINUOUS
 62
    7
 10
1398.8
 20
324.9999999999992
 11
1398.8
 21
284.9999999999992
  0
LINE
  8
_0-2_
  6
CONTINUOUS
 62
  132
 10
830
 20
601.49999999999955
 11
830
 21
899.99999999999977
  0
LINE
  8
_0-2_
  6
CONTINUOUS
 62
  132
 10
870
 20
601.49999999999955
 11
870
 21
899.99999999999977
  0
LINE
  8
_0-2_
  6
CONTINUOUS
 62
  132
 10
830
 20
324.9999999999992
 11
830
 21
596.49999999999955
  0
LINE
  8
_0-2_
  6
CONTINUOUS
 62
  132
 10
870
 20
324.9999999999992
 11
870
 21
596.49999999999955
  0
TEXT
  8
_0-0_
 62
    7
 10
1489
 20
1055.9999999999991
 40
28
 41
1
 50
0
  1
縦断面図
  0
TEXT
  8
_0-0_
 62
    7
 10
300
 20
142
 40
28
 41
1
 50
0
  1
横断面図
  0
TEXT
  8
_0-0_
 62
    7
 10
270
 20
223.9999999999992
 40
28
 41
1
 50
0
  1
正面図
  0
LINE
  8
_0-3_
  6
CONTINUOUS
 62
   54
 10
1600
 20
281.9999999999992
 11
1490
 21
281.9999999999992
  0
LINE
  8
_0-3_
  6
CONTINUOUS
 62
   54
 10
1590.6440837597154
 20
256.99999999999818
 11
1600.0000000000009
 21
266.35591624028359
  0
LINE
  8
_0-3_
  6
CONTINUOUS
 62
   54
 10
1568.0166667617418
 20
256.99999999999784
 11
1593.0166667617423
 21
281.99999999999852
  0
LINE
  8
_0-3_
  6
CONTINUOUS
 62
   54
 10
1545.389249763776
 20
256.99999999999818
 11
1570.3892497637767
 21
281.99999999999886
  0
LINE
  8
_0-3_
  6
CONTINUOUS
 62
   54
 10
1522.7618327658024
 20
256.99999999999784
 11
1547.7618327658031
 21
281.99999999999852
  0
LINE
  8
_0-3_
  6
CONTINUOUS
 62
   54
 10
1500.1344157678366
 20
256.99999999999818
 11
1525.1344157678373
 21
281.99999999999886
  0
LINE
  8
_0-3_
  6
CONTINUOUS
 62
   54
 10
1490.0000000000014
 20
269.49300123012915
 11
1502.5069987698694
 21
281.99999999999693
  0
LINE
  8
_0-1_
  6
CONTINUOUS
 62
    7
 10
1534.5
 20
287.9999999999992
 11
1533.5
 21
287.9999999999992
  0
LINE
  8
_0-1_
  6
CONTINUOUS
 62
    7
 10
1533.5
 20
287.9999999999992
 11
1533.5
 21
281.9999999999992
  0
LINE
  8
_0-1_
  6
CONTINUOUS
 62
    7
 10
1533.5
 20
281.9999999999992
 11
1556.5
 21
281.9999999999992
  0
LINE
  8
_0-1_
  6
CONTINUOUS
 62
    7
 10
1556.5
 20
281.9999999999992
 11
1556.5
 21
287.9999999999992
  0
LINE
  8
_0-1_
  6
CONTINUOUS
 62
    7
 10
1556.5
 20
287.9999999999992
 11
1555.5
 21
287.9999999999992
  0
LINE
  8
_0-1_
  6
CONTINUOUS
 62
    7
 10
1555.5
 20
287.9999999999992
 11
1555.5
 21
282.9999999999992
  0
LINE
  8
_0-1_
  6
CONTINUOUS
 62
    7
 10
1555.5
 20
282.9999999999992
 11
1545.5
 21
282.9999999999992
  0
LINE
  8
_0-1_
  6
CONTINUOUS
 62
    7
 10
1545.5
 20
282.9999999999992
 11
1545.5
 21
287.9999999999992
  0
LINE
  8
_0-1_
  6
CONTINUOUS
 62
    7
 10
1545.5
 20
287.9999999999992
 11
1544.5
 21
287.9999999999992
  0
LINE
  8
_0-1_
  6
CONTINUOUS
 62
    7
 10
1544.5
 20
287.9999999999992
 11
1544.5
 21
282.9999999999992
  0
LINE
  8
_0-1_
  6
CONTINUOUS
 62
    7
 10
1544.5
 20
282.9999999999992
 11
1534.5
 21
282.9999999999992
  0
LINE
  8
_0-1_
  6
CONTINUOUS
 62
    7
 10
1534.5
 20
282.9999999999992
 11
1534.5
 21
287.9999999999992
  0
LINE
  8
_0-1_
  6
CONTINUOUS
 62
    7
 10
119.5
 20
862
 11
118.5
 21
862
  0
LINE
  8
_0-1_
  6
CONTINUOUS
 62
    7
 10
118.5
 20
862
 11
118.5
 21
856
  0
LINE
  8
_0-1_
  6
CONTINUOUS
 62
    7
 10
118.5
 20
856
 11
141.5
 21
856
  0
LINE
  8
_0-1_
  6
CONTINUOUS
 62
    7
 10
141.5
 20
856
 11
141.5
 21
862
  0
LINE
  8
_0-1_
  6
CONTINUOUS
 62
    7
 10
141.5
 20
862
 11
140.5
 21
862
  0
LINE
  8
_0-1_
  6
CONTINUOUS
 62
    7
 10
140.5
 20
862
 11
140.5
 21
857
  0
LINE
  8
_0-1_
  6
CONTINUOUS
 62
    7
 10
140.5
 20
857
 11
130.5
 21
857
  0
LINE
  8
_0-1_
  6
CONTINUOUS
 62
    7
 10
130.5
 20
857
 11
130.5
 21
862
  0
LINE
  8
_0-1_
  6
CONTINUOUS
 62
    7
 10
130.5
 20
862
 11
129.5
 21
862
  0
LINE
  8
_0-1_
  6
CONTINUOUS
 62
    7
 10
129.5
 20
862
 11
129.5
 21
857
  0
LINE
  8
_0-1_
  6
CONTINUOUS
 62
    7
 10
129.5
 20
857
 11
119.5
 21
857
  0
LINE
  8
_0-1_
  6
CONTINUOUS
 62
    7
 10
119.5
 20
857
 11
119.5
 21
862
  0
POINT
  8
_0-4_
 62
  132
 10
180
 20
862
  0
POINT
  8
_0-4_
 62
  132
 10
180
 20
856
  0
LINE
  8
_0-4_
  6
CONTINUOUS
 62
    7
 10
180
 20
862
 11
160
 21
862
  0
LINE
  8
_0-4_
  6
CONTINUOUS
 62
    7
 10
180
 20
856
 11
160
 21
856
  0
LINE
  8
_0-0_
  6
CONTINUOUS
 62
  132
 10
180
 20
862
 11
180
 21
856
  0
TEXT
  8
_0-4_
 62
    7
 10
180
 20
846
 40
16
 41
1
 50
90
  1
6.0
  0
POINT
  8
_0-4_
 62
  132
 10
141.5
 20
806
  0
POINT
  8
_0-4_
 62
  132
 10
118.5
 20
806
  0
LINE
  8
_0-4_
  6
CONTINUOUS
 62
    7
 10
141.5
 20
806
 11
141.5
 21
826
  0
LINE
  8
_0-4_
  6
CONTINUOUS
 62
    7
 10
118.5
 20
806
 11
118.5
 21
826
  0
LINE
  8
_0-0_
  6
CONTINUOUS
 62
  132
 10
141.5
 20
806
 11
118.5
 21
806
  0
TEXT
  8
_0-4_
 62
    7
 10
112.5
 20
806
 40
16
 41
1
 50
0
  1
23.0
  0
TEXT
  8
_0-0_
 62
    7
 10
30
 20
756
 40
20
 41
1
 50
0
  1
999-02902
  0
LINE
  8
_0-1_
  6
CONTINUOUS
 62
    7
 10
133.04999999999995
 20
679.5
 11
133.04999999999995
 21
659.5
  0
LINE
  8
_0-1_
  6
CONTINUOUS
 62
    7
 10
126.95000000000005
 20
679.5
 11
126.95000000000005
 21
659.5
  0
ARC
  8
_0-1_
  6
CONTINUOUS
 62
    7
 10
125.2842256979834
 20
662.44810326594768
 40
8.980286112951541
 50
344.39783828064765
 51
356.74229428108964
  0
ARC
  8
_0-1_
  6
CONTINUOUS
 62
    7
 10
133.33739194779969
 20
660.09999231021561
 40
0.5999923102187106
 50
269.9998139964427
 51
353.57003653217112
  0
LINE
  8
_0-1_
  6
CONTINUOUS
 62
    7
 10
133.33738999999991
 20
659.5
 11
133.33328000000006
 21
659.5
  0
LINE
  8
_0-1_
  6
CONTINUOUS
 62
    7
 10
133.33328000000006
 20
659.5
 11
133.04999999999995
 21
659.5
  0
LINE
  8
_0-1_
  6
CONTINUOUS
 62
    7
 10
133.04999999999995
 20
659.5
 11
133.04999999999995
 21
659.57330000000002
  0
LINE
  8
_0-1_
  6
CONTINUOUS
 62
    7
 10
133.04999999999995
 20
659.57330000000002
 11
133.04999999999995
 21
660.62669000000005
  0
LINE
  8
_0-1_
  6
CONTINUOUS
 62
    7
 10
133.04999999999995
 20
660.62669000000005
 11
133.04999999999995
 21
662.45000000000005
  0
LINE
  8
_0-1_
  6
CONTINUOUS
 62
    7
 10
133.04999999999995
 20
662.45000000000005
 11
133.04999999999995
 21
675.5
  0
LINE
  8
_0-1_
  6
CONTINUOUS
 62
    7
 10
133.04999999999995
 20
675.5
 11
133.04999999999995
 21
675.89999999999998
  0
LINE
  8
_0-1_
  6
CONTINUOUS
 62
    7
 10
133.04999999999995
 20
675.89999999999998
 11
132.125
 21
675.5
  0
LINE
  8
_0-1_
  6
CONTINUOUS
 62
    7
 10
132.125
 20
675.5
 11
130
 21
675.5
  0
LINE
  8
_0-1_
  6
CONTINUOUS
 62
    7
 10
130
 20
675.5
 11
127.875
 21
675.5
  0
LINE
  8
_0-1_
  6
CONTINUOUS
 62
    7
 10
127.875
 20
675.5
 11
126.95000000000005
 21
675.89999999999998
  0
LINE
  8
_0-1_
  6
CONTINUOUS
 62
    7
 10
126.95000000000005
 20
675.89999999999998
 11
126.95000000000005
 21
675.5
  0
LINE
  8
_0-1_
  6
CONTINUOUS
 62
    7
 10
126.95000000000005
 20
675.5
 11
126.95000000000005
 21
662.45000000000005
  0
LINE
  8
_0-1_
  6
CONTINUOUS
 62
    7
 10
126.95000000000005
 20
662.45000000000005
 11
126.95000000000005
 21
660.62669000000005
  0
LINE
  8
_0-1_
  6
CONTINUOUS
 62
    7
 10
126.95000000000005
 20
660.62669000000005
 11
126.95000000000005
 21
659.57330000000002
  0
LINE
  8
_0-1_
  6
CONTINUOUS
 62
    7
 10
126.95000000000005
 20
659.57330000000002
 11
126.95000000000005
 21
659.5
  0
LINE
  8
_0-1_
  6
CONTINUOUS
 62
    7
 10
126.95000000000005
 20
659.5
 11
126.66671999999994
 21
659.5
  0
LINE
  8
_0-1_
  6
CONTINUOUS
 62
    7
 10
126.66671999999994
 20
659.5
 11
126.66261000000009
 21
659.5
  0
ARC
  8
_0-1_
  6
CONTINUOUS
 62
    7
 10
126.66260281539871
 20
660.09998645006954
 40
0.5999864501125413
 50
186.42946337700997
 51
270.00068609437625
  0
ARC
  8
_0-1_
  6
CONTINUOUS
 62
    7
 10
134.71593861800739
 20
662.44813055648956
 40
8.9804517142728297
 50
183.25781997834312
 51
195.60204745991962
  0
LINE
  8
_0-1_
  6
CONTINUOUS
 62
    7
 10
125.75
 20
661.93777999999998
 11
125.75
 21
662.45000000000005
  0
LINE
  8
_0-1_
  6
CONTINUOUS
 62
    7
 10
125.75
 20
662.45000000000005
 11
125.75
 21
664.5
  0
LINE
  8
_0-1_
  6
CONTINUOUS
 62
    7
 10
125.75
 20
664.5
 11
125.75
 21
675.5
  0
LINE
  8
_0-1_
  6
CONTINUOUS
 62
    7
 10
125.75
 20
675.5
 11
125.75
 21
677.5
  0
LINE
  8
_0-1_
  6
CONTINUOUS
 62
    7
 10
125.75
 20
677.5
 11
125.75
 21
679.5
  0
LINE
  8
_0-1_
  6
CONTINUOUS
 62
    7
 10
125.75
 20
679.5
 11
125.75
 21
681.5
  0
LINE
  8
_0-1_
  6
CONTINUOUS
 62
    7
 10
125.75
 20
681.5
 11
125.75
 21
683.5
  0
LINE
  8
_0-1_
  6
CONTINUOUS
 62
    7
 10
125.75
 20
683.5
 11
125.75
 21
694.5
  0
LINE
  8
_0-1_
  6
CONTINUOUS
 62
    7
 10
125.75
 20
694.5
 11
125.75
 21
696.54999999999995
  0
LINE
  8
_0-1_
  6
CONTINUOUS
 62
    7
 10
125.75
 20
696.54999999999995
 11
125.75
 21
697.06222000000002
  0
ARC
  8
_0-1_
  6
CONTINUOUS
 62
    7
 10
134.7157743020166
 20
696.55189673405232
 40
8.9802861129515232
 50
164.39783828064762
 51
176.74229428108958
  0
ARC
  8
_0-1_
  6
CONTINUOUS
 62
    7
 10
126.66260805220031
 20
698.90000768978439
 40
0.5999923102187106
 50
89.999813996442725
 51
173.57003653217112
  0
LINE
  8
_0-1_
  6
CONTINUOUS
 62
    7
 10
126.66261000000009
 20
699.5
 11
126.66671999999994
 21
699.5
  0
LINE
  8
_0-1_
  6
CONTINUOUS
 62
    7
 10
126.66671999999994
 20
699.5
 11
126.95000000000005
 21
699.5
  0
LINE
  8
_0-1_
  6
CONTINUOUS
 62
    7
 10
126.95000000000005
 20
699.5
 11
126.95000000000005
 21
699.42669999999998
  0
LINE
  8
_0-1_
  6
CONTINUOUS
 62
    7
 10
126.95000000000005
 20
699.42669999999998
 11
126.95000000000005
 21
698.37330999999995
  0
LINE
  8
_0-1_
  6
CONTINUOUS
 62
    7
 10
126.95000000000005
 20
698.37330999999995
 11
126.95000000000005
 21
696.54999999999995
  0
LINE
  8
_0-1_
  6
CONTINUOUS
 62
    7
 10
126.95000000000005
 20
696.54999999999995
 11
126.95000000000005
 21
683.5
  0
LINE
  8
_0-1_
  6
CONTINUOUS
 62
    7
 10
126.95000000000005
 20
683.5
 11
126.95000000000005
 21
681.5
  0
LINE
  8
_0-1_
  6
CONTINUOUS
 62
    7
 10
126.95000000000005
 20
681.5
 11
126.95000000000005
 21
679.5
  0
LINE
  8
_0-1_
  6
CONTINUOUS
 62
    7
 10
126.95000000000005
 20
679.5
 11
126.95000000000005
 21
677.5
  0
LINE
  8
_0-1_
  6
CONTINUOUS
 62
    7
 10
126.95000000000005
 20
677.5
 11
126.95000000000005
 21
677.10000000000002
  0
LINE
  8
_0-1_
  6
CONTINUOUS
 62
    7
 10
126.95000000000005
 20
677.10000000000002
 11
127.95000000000005
 21
677.5
  0
LINE
  8
_0-1_
  6
CONTINUOUS
 62
    7
 10
127.95000000000005
 20
677.5
 11
130
 21
677.5
  0
LINE
  8
_0-1_
  6
CONTINUOUS
 62
    7
 10
130
 20
677.5
 11
132.04999999999995
 21
677.5
  0
LINE
  8
_0-1_
  6
CONTINUOUS
 62
    7
 10
132.04999999999995
 20
677.5
 11
133.04999999999995
 21
677.10000000000002
  0
LINE
  8
_0-1_
  6
CONTINUOUS
 62
    7
 10
133.04999999999995
 20
677.10000000000002
 11
133.04999999999995
 21
677.5
  0
LINE
  8
_0-1_
  6
CONTINUOUS
 62
    7
 10
133.04999999999995
 20
677.5
 11
133.04999999999995
 21
679.5
  0
LINE
  8
_0-1_
  6
CONTINUOUS
 62
    7
 10
133.04999999999995
 20
679.5
 11
133.04999999999995
 21
681.5
  0
LINE
  8
_0-1_
  6
CONTINUOUS
 62
    7
 10
133.04999999999995
 20
681.5
 11
133.04999999999995
 21
683.5
  0
LINE
  8
_0-1_
  6
CONTINUOUS
 62
    7
 10
133.04999999999995
 20
683.5
 11
133.04999999999995
 21
696.54999999999995
  0
LINE
  8
_0-1_
  6
CONTINUOUS
 62
    7
 10
133.04999999999995
 20
696.54999999999995
 11
133.04999999999995
 21
698.37330999999995
  0
LINE
  8
_0-1_
  6
CONTINUOUS
 62
    7
 10
133.04999999999995
 20
698.37330999999995
 11
133.04999999999995
 21
699.42669999999998
  0
LINE
  8
_0-1_
  6
CONTINUOUS
 62
    7
 10
133.04999999999995
 20
699.42669999999998
 11
133.04999999999995
 21
699.5
  0
LINE
  8
_0-1_
  6
CONTINUOUS
 62
    7
 10
133.04999999999995
 20
699.5
 11
133.33328000000006
 21
699.5
  0
LINE
  8
_0-1_
  6
CONTINUOUS
 62
    7
 10
133.33328000000006
 20
699.5
 11
133.33738999999991
 21
699.5
  0
ARC
  8
_0-1_
  6
CONTINUOUS
 62
    7
 10
133.33739718460129
 20
698.90001354993046
 40
0.5999864501125413
 50
6.4294633770099328
 51
90.000686094376206
  0
ARC
  8
_0-1_
  6
CONTINUOUS
 62
    7
 10
125.28406138199261
 20
696.55186944351055
 40
8.980451714272812
 50
3.2578199783431425
 51
15.602047459919618
  0
LINE
  8
_0-1_
  6
CONTINUOUS
 62
    7
 10
134.25
 20
697.06222000000002
 11
134.25
 21
696.54999999999995
  0
LINE
  8
_0-1_
  6
CONTINUOUS
 62
    7
 10
134.25
 20
696.54999999999995
 11
134.25
 21
694.5
  0
LINE
  8
_0-1_
  6
CONTINUOUS
 62
    7
 10
134.25
 20
694.5
 11
134.25
 21
683.5
  0
LINE
  8
_0-1_
  6
CONTINUOUS
 62
    7
 10
134.25
 20
683.5
 11
134.25
 21
681.5
  0
LINE
  8
_0-1_
  6
CONTINUOUS
 62
    7
 10
134.25
 20
681.5
 11
134.25
 21
679.5
  0
LINE
  8
_0-1_
  6
CONTINUOUS
 62
    7
 10
134.25
 20
679.5
 11
134.25
 21
677.5
  0
LINE
  8
_0-1_
  6
CONTINUOUS
 62
    7
 10
134.25
 20
677.5
 11
134.25
 21
675.5
  0
LINE
  8
_0-1_
  6
CONTINUOUS
 62
    7
 10
134.25
 20
675.5
 11
134.25
 21
664.5
  0
LINE
  8
_0-1_
  6
CONTINUOUS
 62
    7
 10
134.25
 20
664.5
 11
134.25
 21
662.45000000000005
  0
LINE
  8
_0-1_
  6
CONTINUOUS
 62
    7
 10
134.25
 20
662.45000000000005
 11
134.25
 21
661.93777999999998
  0
LINE
  8
_0-1_
  6
CONTINUOUS
 62
    7
 10
131.75
 20
656
 11
131.75
 21
659.5
  0
LINE
  8
_0-1_
  6
CONTINUOUS
 62
    7
 10
131.75
 20
659.5
 11
130
 21
659.5
  0
LINE
  8
_0-1_
  6
CONTINUOUS
 62
    7
 10
130
 20
659.5
 11
128.25
 21
659.5
  0
LINE
  8
_0-1_
  6
CONTINUOUS
 62
    7
 10
128.25
 20
659.5
 11
128.25
 21
656
  0
LINE
  8
_0-1_
  6
CONTINUOUS
 62
    7
 10
128.25
 20
656
 11
131.75
 21
656
  0
LINE
  8
_0-1_
  6
CONTINUOUS
 62
    7
 10
127
 20
659.5
 11
133
 21
659.5
  0
LINE
  8
_0-1_
  6
CONTINUOUS
 62
    7
 10
133
 20
659.5
 11
133
 21
661.5
  0
LINE
  8
_0-1_
  6
CONTINUOUS
 62
    7
 10
133
 20
661.5
 11
127
 21
661.5
  0
LINE
  8
_0-1_
  6
CONTINUOUS
 62
    7
 10
127
 20
661.5
 11
127
 21
659.5
  0
LINE
  8
_0-1_
  6
CONTINUOUS
 62
    7
 10
128
 20
661.5
 11
127
 21
661.5
  0
LINE
  8
_0-1_
  6
CONTINUOUS
 62
    7
 10
133
 20
661.5
 11
132
 21
661.5
  0
POINT
  8
_0-4_
 62
  132
 10
178.25
 20
656
  0
POINT
  8
_0-4_
 62
  132
 10
178.25
 20
699.5
  0
LINE
  8
_0-4_
  6
CONTINUOUS
 62
    7
 10
178.25
 20
656
 11
160
 21
656
  0
LINE
  8
_0-4_
  6
CONTINUOUS
 62
    7
 10
178.25
 20
699.5
 11
160
 21
699.5
  0
LINE
  8
_0-4_
  6
CONTINUOUS
 62
  132
 10
178.25
 20
656
 11
178.25
 21
699.5
  0
TEXT
  8
_0-4_
 62
    7
 10
178.25
 20
660.25
 40
16
 41
1
 50
90
  1
43.5
  0
POINT
  8
_0-4_
 62
  132
 10
126.95000000000005
 20
706
  0
POINT
  8
_0-4_
 62
  132
 10
133.04999999999995
 20
706
  0
LINE
  8
_0-4_
  6
CONTINUOUS
 62
    7
 10
126.95000000000005
 20
706
 11
126.95000000000005
 21
686
  0
LINE
  8
_0-4_
  6
CONTINUOUS
 62
    7
 10
133.04999999999995
 20
706
 11
133.04999999999995
 21
686
  0
LINE
  8
_0-4_
  6
CONTINUOUS
 62
  132
 10
126.95000000000005
 20
706
 11
133.04999999999995
 21
706
  0
TEXT
  8
_0-4_
 62
    7
 10
117
 20
706
 40
16
 41
1
 50
0
  1
6.1
  0
POINT
  8
_0-4_
 62
  132
 10
134.25
 20
606
  0
POINT
  8
_0-4_
 62
  132
 10
125.75
 20
606
  0
LINE
  8
_0-4_
  6
CONTINUOUS
 62
    7
 10
134.25
 20
606
 11
134.25
 21
626
  0
LINE
  8
_0-4_
  6
CONTINUOUS
 62
    7
 10
125.75
 20
606
 11
125.75
 21
626
  0
LINE
  8
_0-4_
  6
CONTINUOUS
 62
  132
 10
134.25
 20
606
 11
125.75
 21
606
  0
TEXT
  8
_0-4_
 62
    7
 10
117
 20
606
 40
16
 41
1
 50
0
  1
8.5
  0
TEXT
  8
_0-0_
 62
    7
 10
30
 20
556
 40
20
 41
1
 50
0
  1
999-02250
  0
TEXT
  8
_0-0_
 62
    7
 10
130
 20
556
 40
20
 41
1
 50
0
  1
999-02349
  0
LINE
  8
_0-1_
  6
CONTINUOUS
 62
    7
 10
1542.55
 20
306.4999999999992
 11
1542.55
 21
286.4999999999992
  0
LINE
  8
_0-1_
  6
CONTINUOUS
 62
    7
 10
1536.45
 20
306.4999999999992
 11
1536.45
 21
286.4999999999992
  0
ARC
  8
_0-1_
  6
CONTINUOUS
 62
    7
 10
1534.7842256979834
 20
289.44810326594688
 40
8.980286112951541
 50
344.39783828064765
 51
356.74229428108964
  0
ARC
  8
_0-1_
  6
CONTINUOUS
 62
    7
 10
1542.8373919477997
 20
287.09999231021476
 40
0.5999923102187106
 50
269.9998139964427
 51
353.57003653217112
  0
LINE
  8
_0-1_
  6
CONTINUOUS
 62
    7
 10
1542.8373899999999
 20
286.4999999999992
 11
1542.8332800000001
 21
286.4999999999992
  0
LINE
  8
_0-1_
  6
CONTINUOUS
 62
    7
 10
1542.8332800000001
 20
286.4999999999992
 11
1542.55
 21
286.4999999999992
  0
LINE
  8
_0-1_
  6
CONTINUOUS
 62
    7
 10
1542.55
 20
286.4999999999992
 11
1542.55
 21
286.57329999999922
  0
LINE
  8
_0-1_
  6
CONTINUOUS
 62
    7
 10
1542.55
 20
286.57329999999922
 11
1542.55
 21
287.6266899999992
  0
LINE
  8
_0-1_
  6
CONTINUOUS
 62
    7
 10
1542.55
 20
287.6266899999992
 11
1542.55
 21
289.44999999999919
  0
LINE
  8
_0-1_
  6
CONTINUOUS
 62
    7
 10
1542.55
 20
289.44999999999919
 11
1542.55
 21
302.4999999999992
  0
LINE
  8
_0-1_
  6
CONTINUOUS
 62
    7
 10
1542.55
 20
302.4999999999992
 11
1542.55
 21
302.89999999999918
  0
LINE
  8
_0-1_
  6
CONTINUOUS
 62
    7
 10
1542.55
 20
302.89999999999918
 11
1541.625
 21
302.4999999999992
  0
LINE
  8
_0-1_
  6
CONTINUOUS
 62
    7
 10
1541.625
 20
302.4999999999992
 11
1539.5
 21
302.4999999999992
  0
LINE
  8
_0-1_
  6
CONTINUOUS
 62
    7
 10
1539.5
 20
302.4999999999992
 11
1537.375
 21
302.4999999999992
  0
LINE
  8
_0-1_
  6
CONTINUOUS
 62
    7
 10
1537.375
 20
302.4999999999992
 11
1536.45
 21
302.89999999999918
  0
LINE
  8
_0-1_
  6
CONTINUOUS
 62
    7
 10
1536.45
 20
302.89999999999918
 11
1536.45
 21
302.4999999999992
  0
LINE
  8
_0-1_
  6
CONTINUOUS
 62
    7
 10
1536.45
 20
302.4999999999992
 11
1536.45
 21
289.44999999999919
  0
LINE
  8
_0-1_
  6
CONTINUOUS
 62
    7
 10
1536.45
 20
289.44999999999919
 11
1536.45
 21
287.6266899999992
  0
LINE
  8
_0-1_
  6
CONTINUOUS
 62
    7
 10
1536.45
 20
287.6266899999992
 11
1536.45
 21
286.57329999999922
  0
LINE
  8
_0-1_
  6
CONTINUOUS
 62
    7
 10
1536.45
 20
286.57329999999922
 11
1536.45
 21
286.4999999999992
  0
LINE
  8
_0-1_
  6
CONTINUOUS
 62
    7
 10
1536.45
 20
286.4999999999992
 11
1536.1667199999999
 21
286.4999999999992
  0
LINE
  8
_0-1_
  6
CONTINUOUS
 62
    7
 10
1536.1667199999999
 20
286.4999999999992
 11
1536.1626100000001
 21
286.4999999999992
  0
ARC
  8
_0-1_
  6
CONTINUOUS
 62
    7
 10
1536.1626028153987
 20
287.09998645006874
 40
0.5999864501125413
 50
186.42946337700997
 51
270.00068609437625
  0
ARC
  8
_0-1_
  6
CONTINUOUS
 62
    7
 10
1544.2159386180074
 20
289.44813055648871
 40
8.9804517142728297
 50
183.25781997834312
 51
195.60204745991962
  0
LINE
  8
_0-1_
  6
CONTINUOUS
 62
    7
 10
1535.25
 20
288.93777999999918
 11
1535.25
 21
289.44999999999919
  0
LINE
  8
_0-1_
  6
CONTINUOUS
 62
    7
 10
1535.25
 20
289.44999999999919
 11
1535.25
 21
291.4999999999992
  0
LINE
  8
_0-1_
  6
CONTINUOUS
 62
    7
 10
1535.25
 20
291.4999999999992
 11
1535.25
 21
302.4999999999992
  0
LINE
  8
_0-1_
  6
CONTINUOUS
 62
    7
 10
1535.25
 20
302.4999999999992
 11
1535.25
 21
304.4999999999992
  0
LINE
  8
_0-1_
  6
CONTINUOUS
 62
    7
 10
1535.25
 20
304.4999999999992
 11
1535.25
 21
306.4999999999992
  0
LINE
  8
_0-1_
  6
CONTINUOUS
 62
    7
 10
1535.25
 20
306.4999999999992
 11
1535.25
 21
308.4999999999992
  0
LINE
  8
_0-1_
  6
CONTINUOUS
 62
    7
 10
1535.25
 20
308.4999999999992
 11
1535.25
 21
310.4999999999992
  0
LINE
  8
_0-1_
  6
CONTINUOUS
 62
    7
 10
1535.25
 20
310.4999999999992
 11
1535.25
 21
321.4999999999992
  0
LINE
  8
_0-1_
  6
CONTINUOUS
 62
    7
 10
1535.25
 20
321.4999999999992
 11
1535.25
 21
323.54999999999916
  0
LINE
  8
_0-1_
  6
CONTINUOUS
 62
    7
 10
1535.25
 20
323.54999999999916
 11
1535.25
 21
324.06221999999923
  0
ARC
  8
_0-1_
  6
CONTINUOUS
 62
    7
 10
1544.2157743020166
 20
323.55189673405152
 40
8.9802861129515232
 50
164.39783828064762
 51
176.74229428108958
  0
ARC
  8
_0-1_
  6
CONTINUOUS
 62
    7
 10
1536.1626080522003
 20
325.90000768978365
 40
0.5999923102187106
 50
89.999813996442725
 51
173.57003653217112
  0
LINE
  8
_0-1_
  6
CONTINUOUS
 62
    7
 10
1536.1626100000001
 20
326.4999999999992
 11
1536.1667199999999
 21
326.4999999999992
  0
LINE
  8
_0-1_
  6
CONTINUOUS
 62
    7
 10
1536.1667199999999
 20
326.4999999999992
 11
1536.45
 21
326.4999999999992
  0
LINE
  8
_0-1_
  6
CONTINUOUS
 62
    7
 10
1536.45
 20
326.4999999999992
 11
1536.45
 21
326.42669999999919
  0
LINE
  8
_0-1_
  6
CONTINUOUS
 62
    7
 10
1536.45
 20
326.42669999999919
 11
1536.45
 21
325.37330999999921
  0
LINE
  8
_0-1_
  6
CONTINUOUS
 62
    7
 10
1536.45
 20
325.37330999999921
 11
1536.45
 21
323.54999999999916
  0
LINE
  8
_0-1_
  6
CONTINUOUS
 62
    7
 10
1536.45
 20
323.54999999999916
 11
1536.45
 21
310.4999999999992
  0
LINE
  8
_0-1_
  6
CONTINUOUS
 62
    7
 10
1536.45
 20
310.4999999999992
 11
1536.45
 21
308.4999999999992
  0
LINE
  8
_0-1_
  6
CONTINUOUS
 62
    7
 10
1536.45
 20
308.4999999999992
 11
1536.45
 21
306.4999999999992
  0
LINE
  8
_0-1_
  6
CONTINUOUS
 62
    7
 10
1536.45
 20
306.4999999999992
 11
1536.45
 21
304.4999999999992
  0
LINE
  8
_0-1_
  6
CONTINUOUS
 62
    7
 10
1536.45
 20
304.4999999999992
 11
1536.45
 21
304.09999999999923
  0
LINE
  8
_0-1_
  6
CONTINUOUS
 62
    7
 10
1536.45
 20
304.09999999999923
 11
1537.45
 21
304.4999999999992
  0
LINE
  8
_0-1_
  6
CONTINUOUS
 62
    7
 10
1537.45
 20
304.4999999999992
 11
1539.5
 21
304.4999999999992
  0
LINE
  8
_0-1_
  6
CONTINUOUS
 62
    7
 10
1539.5
 20
304.4999999999992
 11
1541.55
 21
304.4999999999992
  0
LINE
  8
_0-1_
  6
CONTINUOUS
 62
    7
 10
1541.55
 20
304.4999999999992
 11
1542.55
 21
304.09999999999923
  0
LINE
  8
_0-1_
  6
CONTINUOUS
 62
    7
 10
1542.55
 20
304.09999999999923
 11
1542.55
 21
304.4999999999992
  0
LINE
  8
_0-1_
  6
CONTINUOUS
 62
    7
 10
1542.55
 20
304.4999999999992
 11
1542.55
 21
306.4999999999992
  0
LINE
  8
_0-1_
  6
CONTINUOUS
 62
    7
 10
1542.55
 20
306.4999999999992
 11
1542.55
 21
308.4999999999992
  0
LINE
  8
_0-1_
  6
CONTINUOUS
 62
    7
 10
1542.55
 20
308.4999999999992
 11
1542.55
 21
310.4999999999992
  0
LINE
  8
_0-1_
  6
CONTINUOUS
 62
    7
 10
1542.55
 20
310.4999999999992
 11
1542.55
 21
323.54999999999916
  0
LINE
  8
_0-1_
  6
CONTINUOUS
 62
    7
 10
1542.55
 20
323.54999999999916
 11
1542.55
 21
325.37330999999921
  0
LINE
  8
_0-1_
  6
CONTINUOUS
 62
    7
 10
1542.55
 20
325.37330999999921
 11
1542.55
 21
326.42669999999919
  0
LINE
  8
_0-1_
  6
CONTINUOUS
 62
    7
 10
1542.55
 20
326.42669999999919
 11
1542.55
 21
326.4999999999992
  0
LINE
  8
_0-1_
  6
CONTINUOUS
 62
    7
 10
1542.55
 20
326.4999999999992
 11
1542.8332800000001
 21
326.4999999999992
  0
LINE
  8
_0-1_
  6
CONTINUOUS
 62
    7
 10
1542.8332800000001
 20
326.4999999999992
 11
1542.8373899999999
 21
326.4999999999992
  0
ARC
  8
_0-1_
  6
CONTINUOUS
 62
    7
 10
1542.8373971846013
 20
325.90001354992967
 40
0.5999864501125413
 50
6.4294633770099328
 51
90.000686094376206
  0
ARC
  8
_0-1_
  6
CONTINUOUS
 62
    7
 10
1534.7840613819926
 20
323.55186944350976
 40
8.980451714272812
 50
3.2578199783431425
 51
15.602047459919618
  0
LINE
  8
_0-1_
  6
CONTINUOUS
 62
    7
 10
1543.75
 20
324.06221999999923
 11
1543.75
 21
323.54999999999916
  0
LINE
  8
_0-1_
  6
CONTINUOUS
 62
    7
 10
1543.75
 20
323.54999999999916
 11
1543.75
 21
321.4999999999992
  0
LINE
  8
_0-1_
  6
CONTINUOUS
 62
    7
 10
1543.75
 20
321.4999999999992
 11
1543.75
 21
310.4999999999992
  0
LINE
  8
_0-1_
  6
CONTINUOUS
 62
    7
 10
1543.75
 20
310.4999999999992
 11
1543.75
 21
308.4999999999992
  0
LINE
  8
_0-1_
  6
CONTINUOUS
 62
    7
 10
1543.75
 20
308.4999999999992
 11
1543.75
 21
306.4999999999992
  0
LINE
  8
_0-1_
  6
CONTINUOUS
 62
    7
 10
1543.75
 20
306.4999999999992
 11
1543.75
 21
304.4999999999992
  0
LINE
  8
_0-1_
  6
CONTINUOUS
 62
    7
 10
1543.75
 20
304.4999999999992
 11
1543.75
 21
302.4999999999992
  0
LINE
  8
_0-1_
  6
CONTINUOUS
 62
    7
 10
1543.75
 20
302.4999999999992
 11
1543.75
 21
291.4999999999992
  0
LINE
  8
_0-1_
  6
CONTINUOUS
 62
    7
 10
1543.75
 20
291.4999999999992
 11
1543.75
 21
289.44999999999919
  0
LINE
  8
_0-1_
  6
CONTINUOUS
 62
    7
 10
1543.75
 20
289.44999999999919
 11
1543.75
 21
288.93777999999918
  0
LINE
  8
_0-1_
  6
CONTINUOUS
 62
    7
 10
1541.25
 20
282.9999999999992
 11
1541.25
 21
286.4999999999992
  0
LINE
  8
_0-1_
  6
CONTINUOUS
 62
    7
 10
1541.25
 20
286.4999999999992
 11
1539.5
 21
286.4999999999992
  0
LINE
  8
_0-1_
  6
CONTINUOUS
 62
    7
 10
1539.5
 20
286.4999999999992
 11
1537.75
 21
286.4999999999992
  0
LINE
  8
_0-1_
  6
CONTINUOUS
 62
    7
 10
1537.75
 20
286.4999999999992
 11
1537.75
 21
282.9999999999992
  0
LINE
  8
_0-1_
  6
CONTINUOUS
 62
    7
 10
1537.75
 20
282.9999999999992
 11
1541.25
 21
282.9999999999992
  0
LINE
  8
_0-1_
  6
CONTINUOUS
 62
    7
 10
1536.5
 20
286.4999999999992
 11
1542.5
 21
286.4999999999992
  0
LINE
  8
_0-1_
  6
CONTINUOUS
 62
    7
 10
1542.5
 20
286.4999999999992
 11
1542.5
 21
288.4999999999992
  0
LINE
  8
_0-1_
  6
CONTINUOUS
 62
    7
 10
1542.5
 20
288.4999999999992
 11
1536.5
 21
288.4999999999992
  0
LINE
  8
_0-1_
  6
CONTINUOUS
 62
    7
 10
1536.5
 20
288.4999999999992
 11
1536.5
 21
286.4999999999992
  0
LINE
  8
_0-1_
  6
CONTINUOUS
 62
    7
 10
1537.5
 20
288.4999999999992
 11
1536.5
 21
288.4999999999992
  0
LINE
  8
_0-1_
  6
CONTINUOUS
 62
    7
 10
1542.5
 20
288.4999999999992
 11
1541.5
 21
288.4999999999992
  0
LINE
  8
_0-1_
  6
CONTINUOUS
 62
    7
 10
1553.55
 20
306.4999999999992
 11
1553.55
 21
286.4999999999992
  0
LINE
  8
_0-1_
  6
CONTINUOUS
 62
    7
 10
1547.45
 20
306.4999999999992
 11
1547.45
 21
286.4999999999992
  0
ARC
  8
_0-1_
  6
CONTINUOUS
 62
    7
 10
1545.7842256979834
 20
289.44810326594688
 40
8.980286112951541
 50
344.39783828064765
 51
356.74229428108964
  0
ARC
  8
_0-1_
  6
CONTINUOUS
 62
    7
 10
1553.8373919477997
 20
287.09999231021476
 40
0.5999923102187106
 50
269.9998139964427
 51
353.57003653217112
  0
LINE
  8
_0-1_
  6
CONTINUOUS
 62
    7
 10
1553.8373899999999
 20
286.4999999999992
 11
1553.8332800000001
 21
286.4999999999992
  0
LINE
  8
_0-1_
  6
CONTINUOUS
 62
    7
 10
1553.8332800000001
 20
286.4999999999992
 11
1553.55
 21
286.4999999999992
  0
LINE
  8
_0-1_
  6
CONTINUOUS
 62
    7
 10
1553.55
 20
286.4999999999992
 11
1553.55
 21
286.57329999999922
  0
LINE
  8
_0-1_
  6
CONTINUOUS
 62
    7
 10
1553.55
 20
286.57329999999922
 11
1553.55
 21
287.6266899999992
  0
LINE
  8
_0-1_
  6
CONTINUOUS
 62
    7
 10
1553.55
 20
287.6266899999992
 11
1553.55
 21
289.44999999999919
  0
LINE
  8
_0-1_
  6
CONTINUOUS
 62
    7
 10
1553.55
 20
289.44999999999919
 11
1553.55
 21
302.4999999999992
  0
LINE
  8
_0-1_
  6
CONTINUOUS
 62
    7
 10
1553.55
 20
302.4999999999992
 11
1553.55
 21
302.89999999999918
  0
LINE
  8
_0-1_
  6
CONTINUOUS
 62
    7
 10
1553.55
 20
302.89999999999918
 11
1552.625
 21
302.4999999999992
  0
LINE
  8
_0-1_
  6
CONTINUOUS
 62
    7
 10
1552.625
 20
302.4999999999992
 11
1550.5
 21
302.4999999999992
  0
LINE
  8
_0-1_
  6
CONTINUOUS
 62
    7
 10
1550.5
 20
302.4999999999992
 11
1548.375
 21
302.4999999999992
  0
LINE
  8
_0-1_
  6
CONTINUOUS
 62
    7
 10
1548.375
 20
302.4999999999992
 11
1547.45
 21
302.89999999999918
  0
LINE
  8
_0-1_
  6
CONTINUOUS
 62
    7
 10
1547.45
 20
302.89999999999918
 11
1547.45
 21
302.4999999999992
  0
LINE
  8
_0-1_
  6
CONTINUOUS
 62
    7
 10
1547.45
 20
302.4999999999992
 11
1547.45
 21
289.44999999999919
  0
LINE
  8
_0-1_
  6
CONTINUOUS
 62
    7
 10
1547.45
 20
289.44999999999919
 11
1547.45
 21
287.6266899999992
  0
LINE
  8
_0-1_
  6
CONTINUOUS
 62
    7
 10
1547.45
 20
287.6266899999992
 11
1547.45
 21
286.57329999999922
  0
LINE
  8
_0-1_
  6
CONTINUOUS
 62
    7
 10
1547.45
 20
286.57329999999922
 11
1547.45
 21
286.4999999999992
  0
LINE
  8
_0-1_
  6
CONTINUOUS
 62
    7
 10
1547.45
 20
286.4999999999992
 11
1547.1667199999999
 21
286.4999999999992
  0
LINE
  8
_0-1_
  6
CONTINUOUS
 62
    7
 10
1547.1667199999999
 20
286.4999999999992
 11
1547.1626100000001
 21
286.4999999999992
  0
ARC
  8
_0-1_
  6
CONTINUOUS
 62
    7
 10
1547.1626028153987
 20
287.09998645006874
 40
0.5999864501125413
 50
186.42946337700997
 51
270.00068609437625
  0
ARC
  8
_0-1_
  6
CONTINUOUS
 62
    7
 10
1555.2159386180074
 20
289.44813055648871
 40
8.9804517142728297
 50
183.25781997834312
 51
195.60204745991962
  0
LINE
  8
_0-1_
  6
CONTINUOUS
 62
    7
 10
1546.25
 20
288.93777999999918
 11
1546.25
 21
289.44999999999919
  0
LINE
  8
_0-1_
  6
CONTINUOUS
 62
    7
 10
1546.25
 20
289.44999999999919
 11
1546.25
 21
291.4999999999992
  0
LINE
  8
_0-1_
  6
CONTINUOUS
 62
    7
 10
1546.25
 20
291.4999999999992
 11
1546.25
 21
302.4999999999992
  0
LINE
  8
_0-1_
  6
CONTINUOUS
 62
    7
 10
1546.25
 20
302.4999999999992
 11
1546.25
 21
304.4999999999992
  0
LINE
  8
_0-1_
  6
CONTINUOUS
 62
    7
 10
1546.25
 20
304.4999999999992
 11
1546.25
 21
306.4999999999992
  0
LINE
  8
_0-1_
  6
CONTINUOUS
 62
    7
 10
1546.25
 20
306.4999999999992
 11
1546.25
 21
308.4999999999992
  0
LINE
  8
_0-1_
  6
CONTINUOUS
 62
    7
 10
1546.25
 20
308.4999999999992
 11
1546.25
 21
310.4999999999992
  0
LINE
  8
_0-1_
  6
CONTINUOUS
 62
    7
 10
1546.25
 20
310.4999999999992
 11
1546.25
 21
321.4999999999992
  0
LINE
  8
_0-1_
  6
CONTINUOUS
 62
    7
 10
1546.25
 20
321.4999999999992
 11
1546.25
 21
323.54999999999916
  0
LINE
  8
_0-1_
  6
CONTINUOUS
 62
    7
 10
1546.25
 20
323.54999999999916
 11
1546.25
 21
324.06221999999923
  0
ARC
  8
_0-1_
  6
CONTINUOUS
 62
    7
 10
1555.2157743020166
 20
323.55189673405152
 40
8.9802861129515232
 50
164.39783828064762
 51
176.74229428108958
  0
ARC
  8
_0-1_
  6
CONTINUOUS
 62
    7
 10
1547.1626080522003
 20
325.90000768978365
 40
0.5999923102187106
 50
89.999813996442725
 51
173.57003653217112
  0
LINE
  8
_0-1_
  6
CONTINUOUS
 62
    7
 10
1547.1626100000001
 20
326.4999999999992
 11
1547.1667199999999
 21
326.4999999999992
  0
LINE
  8
_0-1_
  6
CONTINUOUS
 62
    7
 10
1547.1667199999999
 20
326.4999999999992
 11
1547.45
 21
326.4999999999992
  0
LINE
  8
_0-1_
  6
CONTINUOUS
 62
    7
 10
1547.45
 20
326.4999999999992
 11
1547.45
 21
326.42669999999919
  0
LINE
  8
_0-1_
  6
CONTINUOUS
 62
    7
 10
1547.45
 20
326.42669999999919
 11
1547.45
 21
325.37330999999921
  0
LINE
  8
_0-1_
  6
CONTINUOUS
 62
    7
 10
1547.45
 20
325.37330999999921
 11
1547.45
 21
323.54999999999916
  0
LINE
  8
_0-1_
  6
CONTINUOUS
 62
    7
 10
1547.45
 20
323.54999999999916
 11
1547.45
 21
310.4999999999992
  0
LINE
  8
_0-1_
  6
CONTINUOUS
 62
    7
 10
1547.45
 20
310.4999999999992
 11
1547.45
 21
308.4999999999992
  0
LINE
  8
_0-1_
  6
CONTINUOUS
 62
    7
 10
1547.45
 20
308.4999999999992
 11
1547.45
 21
306.4999999999992
  0
LINE
  8
_0-1_
  6
CONTINUOUS
 62
    7
 10
1547.45
 20
306.4999999999992
 11
1547.45
 21
304.4999999999992
  0
LINE
  8
_0-1_
  6
CONTINUOUS
 62
    7
 10
1547.45
 20
304.4999999999992
 11
1547.45
 21
304.09999999999923
  0
LINE
  8
_0-1_
  6
CONTINUOUS
 62
    7
 10
1547.45
 20
304.09999999999923
 11
1548.45
 21
304.4999999999992
  0
LINE
  8
_0-1_
  6
CONTINUOUS
 62
    7
 10
1548.45
 20
304.4999999999992
 11
1550.5
 21
304.4999999999992
  0
LINE
  8
_0-1_
  6
CONTINUOUS
 62
    7
 10
1550.5
 20
304.4999999999992
 11
1552.55
 21
304.4999999999992
  0
LINE
  8
_0-1_
  6
CONTINUOUS
 62
    7
 10
1552.55
 20
304.4999999999992
 11
1553.55
 21
304.09999999999923
  0
LINE
  8
_0-1_
  6
CONTINUOUS
 62
    7
 10
1553.55
 20
304.09999999999923
 11
1553.55
 21
304.4999999999992
  0
LINE
  8
_0-1_
  6
CONTINUOUS
 62
    7
 10
1553.55
 20
304.4999999999992
 11
1553.55
 21
306.4999999999992
  0
LINE
  8
_0-1_
  6
CONTINUOUS
 62
    7
 10
1553.55
 20
306.4999999999992
 11
1553.55
 21
308.4999999999992
  0
LINE
  8
_0-1_
  6
CONTINUOUS
 62
    7
 10
1553.55
 20
308.4999999999992
 11
1553.55
 21
310.4999999999992
  0
LINE
  8
_0-1_
  6
CONTINUOUS
 62
    7
 10
1553.55
 20
310.4999999999992
 11
1553.55
 21
323.54999999999916
  0
LINE
  8
_0-1_
  6
CONTINUOUS
 62
    7
 10
1553.55
 20
323.54999999999916
 11
1553.55
 21
325.37330999999921
  0
LINE
  8
_0-1_
  6
CONTINUOUS
 62
    7
 10
1553.55
 20
325.37330999999921
 11
1553.55
 21
326.42669999999919
  0
LINE
  8
_0-1_
  6
CONTINUOUS
 62
    7
 10
1553.55
 20
326.42669999999919
 11
1553.55
 21
326.4999999999992
  0
LINE
  8
_0-1_
  6
CONTINUOUS
 62
    7
 10
1553.55
 20
326.4999999999992
 11
1553.8332800000001
 21
326.4999999999992
  0
LINE
  8
_0-1_
  6
CONTINUOUS
 62
    7
 10
1553.8332800000001
 20
326.4999999999992
 11
1553.8373899999999
 21
326.4999999999992
  0
ARC
  8
_0-1_
  6
CONTINUOUS
 62
    7
 10
1553.8373971846013
 20
325.90001354992967
 40
0.5999864501125413
 50
6.4294633770099328
 51
90.000686094376206
  0
ARC
  8
_0-1_
  6
CONTINUOUS
 62
    7
 10
1545.7840613819926
 20
323.55186944350976
 40
8.980451714272812
 50
3.2578199783431425
 51
15.602047459919618
  0
LINE
  8
_0-1_
  6
CONTINUOUS
 62
    7
 10
1554.75
 20
324.06221999999923
 11
1554.75
 21
323.54999999999916
  0
LINE
  8
_0-1_
  6
CONTINUOUS
 62
    7
 10
1554.75
 20
323.54999999999916
 11
1554.75
 21
321.4999999999992
  0
LINE
  8
_0-1_
  6
CONTINUOUS
 62
    7
 10
1554.75
 20
321.4999999999992
 11
1554.75
 21
310.4999999999992
  0
LINE
  8
_0-1_
  6
CONTINUOUS
 62
    7
 10
1554.75
 20
310.4999999999992
 11
1554.75
 21
308.4999999999992
  0
LINE
  8
_0-1_
  6
CONTINUOUS
 62
    7
 10
1554.75
 20
308.4999999999992
 11
1554.75
 21
306.4999999999992
  0
LINE
  8
_0-1_
  6
CONTINUOUS
 62
    7
 10
1554.75
 20
306.4999999999992
 11
1554.75
 21
304.4999999999992
  0
LINE
  8
_0-1_
  6
CONTINUOUS
 62
    7
 10
1554.75
 20
304.4999999999992
 11
1554.75
 21
302.4999999999992
  0
LINE
  8
_0-1_
  6
CONTINUOUS
 62
    7
 10
1554.75
 20
302.4999999999992
 11
1554.75
 21
291.4999999999992
  0
LINE
  8
_0-1_
  6
CONTINUOUS
 62
    7
 10
1554.75
 20
291.4999999999992
 11
1554.75
 21
289.44999999999919
  0
LINE
  8
_0-1_
  6
CONTINUOUS
 62
    7
 10
1554.75
 20
289.44999999999919
 11
1554.75
 21
288.93777999999918
  0
LINE
  8
_0-1_
  6
CONTINUOUS
 62
    7
 10
1552.25
 20
282.9999999999992
 11
1552.25
 21
286.4999999999992
  0
LINE
  8
_0-1_
  6
CONTINUOUS
 62
    7
 10
1552.25
 20
286.4999999999992
 11
1550.5
 21
286.4999999999992
  0
LINE
  8
_0-1_
  6
CONTINUOUS
 62
    7
 10
1550.5
 20
286.4999999999992
 11
1548.75
 21
286.4999999999992
  0
LINE
  8
_0-1_
  6
CONTINUOUS
 62
    7
 10
1548.75
 20
286.4999999999992
 11
1548.75
 21
282.9999999999992
  0
LINE
  8
_0-1_
  6
CONTINUOUS
 62
    7
 10
1548.75
 20
282.9999999999992
 11
1552.25
 21
282.9999999999992
  0
LINE
  8
_0-1_
  6
CONTINUOUS
 62
    7
 10
1547.5
 20
286.4999999999992
 11
1553.5
 21
286.4999999999992
  0
LINE
  8
_0-1_
  6
CONTINUOUS
 62
    7
 10
1553.5
 20
286.4999999999992
 11
1553.5
 21
288.4999999999992
  0
LINE
  8
_0-1_
  6
CONTINUOUS
 62
    7
 10
1553.5
 20
288.4999999999992
 11
1547.5
 21
288.4999999999992
  0
LINE
  8
_0-1_
  6
CONTINUOUS
 62
    7
 10
1547.5
 20
288.4999999999992
 11
1547.5
 21
286.4999999999992
  0
LINE
  8
_0-1_
  6
CONTINUOUS
 62
    7
 10
1548.5
 20
288.4999999999992
 11
1547.5
 21
288.4999999999992
  0
LINE
  8
_0-1_
  6
CONTINUOUS
 62
    7
 10
1553.5
 20
288.4999999999992
 11
1552.5
 21
288.4999999999992
  0
LINE
  8
_0-2_
  6
CONTINUOUS
 62
  132
 10
1537
 20
904.99999999999977
 11
1542
 21
904.99999999999977
  0
LINE
  8
_0-2_
  6
CONTINUOUS
 62
  132
 10
1548
 20
904.99999999999977
 11
1553
 21
904.99999999999977
  0
LINE
  8
_0-2_
  6
CONTINUOUS
 62
  132
 10
1537
 20
304.4999999999992
 11
1537
 21
596.49999999999955
  0
LINE
  8
_0-2_
  6
CONTINUOUS
 62
  132
 10
1537
 20
601.49999999999955
 11
1537
 21
904.99999999999977
  0
LINE
  8
_0-2_
  6
CONTINUOUS
 62
  132
 10
1542
 20
304.4999999999992
 11
1542
 21
596.49999999999955
  0
LINE
  8
_0-2_
  6
CONTINUOUS
 62
  132
 10
1542
 20
601.49999999999955
 11
1542
 21
904.99999999999977
  0
LINE
  8
_0-2_
  6
CONTINUOUS
 62
  132
 10
1548
 20
304.4999999999992
 11
1548
 21
596.49999999999955
  0
LINE
  8
_0-2_
  6
CONTINUOUS
 62
  132
 10
1553
 20
304.4999999999992
 11
1553
 21
596.49999999999955
  0
LINE
  8
_0-2_
  6
CONTINUOUS
 62
  132
 10
1553
 20
601.49999999999955
 11
1553
 21
904.99999999999977
  0
LINE
  8
_0-1_
  6
CONTINUOUS
 62
    7
 10
1554.75
 20
899.99999999999977
 11
1554.75
 21
915.99999999999977
  0
LINE
  8
_0-f_
  6
CONTINUOUS
 62
    7
 10
1545
 20
651.49999999999955
 11
1545
 21
601.49999999999955
  0
LINE
  8
_0-f_
  6
CONTINUOUS
 62
    7
 10
1545
 20
626.49999999999955
 11
1545
 21
601.49999999999955
  0
LINE
  8
_0-f_
  6
CONTINUOUS
 62
    7
 10
1545
 20
651.49999999999955
 11
1545
 21
701.49999999999955
  0
LINE
  8
_0-f_
  6
CONTINUOUS
 62
    7
 10
1545
 20
701.49999999999955
 11
1545
 21
751.49999999999955
  0
LINE
  8
_0-f_
  6
CONTINUOUS
 62
    7
 10
1545
 20
546.49999999999955
 11
1545
 21
596.49999999999955
  0
LINE
  8
_0-f_
  6
CONTINUOUS
 62
    7
 10
1545
 20
496.49999999999949
 11
1545
 21
546.49999999999955
  0
LINE
  8
_0-f_
  6
CONTINUOUS
 62
    7
 10
1545
 20
726.49999999999955
 11
1545
 21
701.49999999999955
  0
LINE
  8
_0-f_
  6
CONTINUOUS
 62
    7
 10
1545
 20
676.49999999999955
 11
1545
 21
651.49999999999955
  0
LINE
  8
_0-f_
  6
CONTINUOUS
 62
    7
 10
1545
 20
571.49999999999955
 11
1545
 21
546.49999999999955
  0
LINE
  8
_0-f_
  6
CONTINUOUS
 62
    7
 10
1545
 20
521.49999999999955
 11
1545
 21
496.49999999999949
  0
POINT
  8
_0-4_
 62
  132
 10
1542
 20
521.49999999999955
  0
POINT
  8
_0-4_
 62
  132
 10
1548
 20
521.49999999999955
  0
LINE
  8
_0-4_
  6
CONTINUOUS
 62
    7
 10
1542
 20
521.49999999999955
 11
1542
 21
496.49999999999949
  0
LINE
  8
_0-4_
  6
CONTINUOUS
 62
    7
 10
1548
 20
521.49999999999955
 11
1548
 21
496.49999999999949
  0
LINE
  8
_0-3_
  6
CONTINUOUS
 62
  132
 10
1542
 20
521.49999999999955
 11
1548
 21
521.49999999999955
  0
TEXT
  8
_0-3_
 62
    7
 10
1532
 20
521.49999999999955
 40
16
 41
1
 50
0
  1
6.0
  0
POINT
  8
_0-4_
 62
  132
 10
1537
 20
651.49999999999955
  0
POINT
  8
_0-4_
 62
  132
 10
1542
 20
651.49999999999955
  0
LINE
  8
_0-4_
  6
CONTINUOUS
 62
    7
 10
1537
 20
651.49999999999955
 11
1537
 21
626.49999999999955
  0
LINE
  8
_0-4_
  6
CONTINUOUS
 62
    7
 10
1542
 20
651.49999999999955
 11
1542
 21
626.49999999999955
  0
LINE
  8
_0-3_
  6
CONTINUOUS
 62
  132
 10
1537
 20
651.49999999999955
 11
1542
 21
651.49999999999955
  0
TEXT
  8
_0-3_
 62
    7
 10
1526.5
 20
651.49999999999955
 40
16
 41
1
 50
0
  1
5.0
  0
POINT
  8
_0-4_
 62
  132
 10
1548
 20
701.49999999999955
  0
POINT
  8
_0-4_
 62
  132
 10
1553
 20
701.49999999999955
  0
LINE
  8
_0-4_
  6
CONTINUOUS
 62
    7
 10
1548
 20
701.49999999999955
 11
1548
 21
676.49999999999955
  0
LINE
  8
_0-4_
  6
CONTINUOUS
 62
    7
 10
1553
 20
701.49999999999955
 11
1553
 21
676.49999999999955
  0
LINE
  8
_0-3_
  6
CONTINUOUS
 62
  132
 10
1548
 20
701.49999999999955
 11
1553
 21
701.49999999999955
  0
TEXT
  8
_0-3_
 62
    7
 10
1537.5
 20
701.49999999999955
 40
16
 41
1
 50
0
  1
5.0
  0
LINE
  8
_0-f_
  6
CONTINUOUS
 62
    7
 10
1400
 20
92.5
 11
300
 21
92.5
  0
LINE
  8
_0-f_
  6
CONTINUOUS
 62
    7
 10
1400
 20
81.5
 11
300
 21
81.5
  0
LINE
  8
_0-1_
  6
CONTINUOUS
 62
    7
 10
301.20000000000005
 20
96.75
 11
301.20000000000005
 21
88.25
  0
LINE
  8
_0-1_
  6
CONTINUOUS
 62
    7
 10
870
 20
88.25
 11
870
 21
96.75
  0
LINE
  8
_0-1_
  6
CONTINUOUS
 62
    7
 10
870
 20
96.75
 11
871.20000000000005
 21
96.75
  0
LINE
  8
_0-1_
  6
CONTINUOUS
 62
    7
 10
871.20000000000005
 20
96.75
 11
871.20000000000005
 21
88.25
  0
LINE
  8
_0-1_
  6
CONTINUOUS
 62
    7
 10
871.20000000000005
 20
88.25
 11
870
 21
88.25
  0
LINE
  8
_0-1_
  6
CONTINUOUS
 62
    7
 10
870
 20
88.25
 11
870
 21
96.75
  0
LINE
  8
_0-1_
  6
CONTINUOUS
 62
    7
 10
301.20000000000005
 20
96.75
 11
300
 21
96.75
  0
LINE
  8
_0-1_
  6
CONTINUOUS
 62
    7
 10
300
 20
96.75
 11
300
 21
88.25
  0
LINE
  8
_0-1_
  6
CONTINUOUS
 62
    7
 10
300
 20
88.25
 11
301.20000000000005
 21
88.25
  0
LINE
  8
_0-1_
  6
CONTINUOUS
 62
    7
 10
301.20000000000005
 20
88.25
 11
301.20000000000005
 21
96.75
  0
LINE
  8
_0-1_
  6
CONTINUOUS
 62
    7
 10
870
 20
96.75
 11
577.5
 21
96.75
  0
LINE
  8
_0-1_
  6
CONTINUOUS
 62
    7
 10
572.5
 20
96.75
 11
301.20000000000005
 21
96.75
  0
LINE
  8
_0-1_
  6
CONTINUOUS
 62
    7
 10
870
 20
95.549999999999955
 11
577.5
 21
95.549999999999955
  0
LINE
  8
_0-1_
  6
CONTINUOUS
 62
    7
 10
572.5
 20
95.549999999999955
 11
301.20000000000005
 21
95.549999999999955
  0
LINE
  8
_0-2_
  6
CONTINUOUS
 62
  132
 10
301.20000000000005
 20
95
 11
572.5
 21
95
  0
LINE
  8
_0-2_
  6
CONTINUOUS
 62
  132
 10
577.5
 20
95
 11
870
 21
95
  0
LINE
  8
_0-2_
  6
CONTINUOUS
 62
  132
 10
301.20000000000005
 20
90
 11
572.5
 21
90
  0
LINE
  8
_0-2_
  6
CONTINUOUS
 62
  132
 10
577.5
 20
90
 11
870
 21
90
  0
LINE
  8
_0-1_
  6
CONTINUOUS
 62
    7
 10
301.20000000000005
 20
89.450000000000045
 11
572.5
 21
89.450000000000045
  0
LINE
  8
_0-1_
  6
CONTINUOUS
 62
    7
 10
577.5
 20
89.450000000000045
 11
870
 21
89.450000000000045
  0
LINE
  8
_0-1_
  6
CONTINUOUS
 62
    7
 10
301.20000000000005
 20
88.25
 11
572.5
 21
88.25
  0
LINE
  8
_0-1_
  6
CONTINUOUS
 62
    7
 10
577.5
 20
88.25
 11
870
 21
88.25
  0
LINE
  8
_0-f_
  6
CONTINUOUS
 62
    7
 10
300
 20
92.5
 11
305.00840026329956
 21
92.5
  0
LINE
  8
_0-1_
  6
CONTINUOUS
 62
    7
 10
1398.8
 20
77.25
 11
1398.8
 21
85.75
  0
LINE
  8
_0-1_
  6
CONTINUOUS
 62
    7
 10
830
 20
85.75
 11
830
 21
77.25
  0
LINE
  8
_0-1_
  6
CONTINUOUS
 62
    7
 10
830
 20
77.25
 11
828.79999999999995
 21
77.25
  0
LINE
  8
_0-1_
  6
CONTINUOUS
 62
    7
 10
828.79999999999995
 20
77.25
 11
828.79999999999995
 21
85.75
  0
LINE
  8
_0-1_
  6
CONTINUOUS
 62
    7
 10
828.79999999999995
 20
85.75
 11
830
 21
85.75
  0
LINE
  8
_0-1_
  6
CONTINUOUS
 62
    7
 10
830
 20
85.75
 11
830
 21
77.25
  0
LINE
  8
_0-1_
  6
CONTINUOUS
 62
    7
 10
1398.8
 20
77.25
 11
1400
 21
77.25
  0
LINE
  8
_0-1_
  6
CONTINUOUS
 62
    7
 10
1400
 20
77.25
 11
1400
 21
85.75
  0
LINE
  8
_0-1_
  6
CONTINUOUS
 62
    7
 10
1400
 20
85.75
 11
1398.8
 21
85.75
  0
LINE
  8
_0-1_
  6
CONTINUOUS
 62
    7
 10
1398.8
 20
85.75
 11
1398.8
 21
77.25
  0
LINE
  8
_0-1_
  6
CONTINUOUS
 62
    7
 10
1398.8
 20
85.75
 11
1127.5
 21
85.75
  0
LINE
  8
_0-1_
  6
CONTINUOUS
 62
    7
 10
1122.5
 20
85.75
 11
830
 21
85.75
  0
LINE
  8
_0-1_
  6
CONTINUOUS
 62
    7
 10
1398.8
 20
84.549999999999955
 11
1127.5
 21
84.549999999999955
  0
LINE
  8
_0-1_
  6
CONTINUOUS
 62
    7
 10
1122.5
 20
84.549999999999955
 11
830
 21
84.549999999999955
  0
LINE
  8
_0-2_
  6
CONTINUOUS
 62
  132
 10
1398.8
 20
84
 11
1127.5
 21
84
  0
LINE
  8
_0-2_
  6
CONTINUOUS
 62
  132
 10
1122.5
 20
84
 11
830
 21
84
  0
LINE
  8
_0-2_
  6
CONTINUOUS
 62
  132
 10
1398.8
 20
79
 11
1127.5
 21
79
  0
LINE
  8
_0-2_
  6
CONTINUOUS
 62
  132
 10
1122.5
 20
79
 11
830
 21
79
  0
LINE
  8
_0-1_
  6
CONTINUOUS
 62
    7
 10
830
 20
78.450000000000045
 11
1122.5
 21
78.450000000000045
  0
LINE
  8
_0-1_
  6
CONTINUOUS
 62
    7
 10
1127.5
 20
78.450000000000045
 11
1398.8
 21
78.450000000000045
  0
LINE
  8
_0-1_
  6
CONTINUOUS
 62
    7
 10
830
 20
77.25
 11
1122.5
 21
77.25
  0
LINE
  8
_0-1_
  6
CONTINUOUS
 62
    7
 10
1127.5
 20
77.25
 11
1398.8
 21
77.25
  0
LINE
  8
_0-1_
  6
CONTINUOUS
 62
    7
 10
572.5
 20
74.25
 11
300
 21
74.25
  0
LINE
  8
_0-1_
  6
CONTINUOUS
 62
    7
 10
572.5
 20
97.25
 11
300
 21
97.25
  0
LINE
  8
_0-1_
  6
CONTINUOUS
 62
    7
 10
1400
 20
74.25
 11
1127.5
 21
74.25
  0
LINE
  8
_0-1_
  6
CONTINUOUS
 62
    7
 10
1122.5
 20
74.25
 11
577.5
 21
74.25
  0
LINE
  8
_0-1_
  6
CONTINUOUS
 62
    7
 10
1400
 20
97.25
 11
1127.5
 21
97.25
  0
LINE
  8
_0-1_
  6
CONTINUOUS
 62
    7
 10
1122.5
 20
97.25
 11
577.5
 21
97.25
  0
LINE
  8
_0-2_
  6
CONTINUOUS
 62
  132
 10
1398.8
 20
601.49999999999955
 11
1398.8
 21
899.99999999999977
  0
LINE
  8
_0-2_
  6
CONTINUOUS
 62
  132
 10
301.20000000000005
 20
601.49999999999955
 11
301.20000000000005
 21
899.99999999999977
  0
TEXT
  8
_0-0_
 62
    7
 10
30
 20
1156
 40
28
 41
1
 50
0
  1
02902W-02900W-5
  0
ENDSEC
  0
EOF
