  0
SECTION
  2
HEADER
  9
$ACADVER
  1
AC1009
  9
$INSBASE
 10
0
 20
0
 30
0
  9
$EXTMIN
 10
0
 20
0
  9
$EXTMAX
 10
1680
 20
1188
  9
$LIMMIN
 10
0
 20
0
  9
$LIMMAX
 10
1680
 20
1188
  9
$LTSCALE
 40
4
  0
ENDSEC
  0
SECTION
  2
TABLES
  0
TABLE
  2
LTYPE
 70
     9
  0
LTYPE
  2
CONTINUOUS
 70
    64
  3
実線
 72
    65
 73
     0
 40
0.0
  0
LTYPE
  2
DASHED1
 70
    64
  3
--  --  --  --  --  --  --  --  
 72
    65
 73
     2
 40
2.5
 49
1.25
 49
-1.25
  0
LTYPE
  2
DASHED2
 70
    64
  3
----    ----    ----    ----    
 72
    65
 73
     2
 40
5.0
 49
2.5
 49
-2.5
  0
LTYPE
  2
DASHED3
 70
    64
  3
------  ------  ------  ------  
 72
    65
 73
     2
 40
5.0
 49
3.75
 49
-1.25
  0
LTYPE
  2
CENTER1
 70
    64
  3
----- - ----- - ----- - ----- - 
 72
    65
 73
     4
 40
10.0
 49
6.25
 49
-1.25
 49
1.25
 49
-1.25
  0
LTYPE
  2
CENTER2
 70
    64
  3
----------  --  ----------  --  
 72
    65
 73
     4
 40
20.0
 49
12.5
 49
-2.5
 49
2.5
 49
-2.5
  0
LTYPE
  2
PHANTOM1
 70
    64
  3
--- - - --- - - --- - - --- - - 
 72
    65
 73
     6
 40
10.0
 49
3.25
 49
-1.25
 49
1.25
 49
-1.25
 49
1.25
 49
-1.25
  0
LTYPE
  2
PHANTOM2
 70
    64
  3
--------  -  -  --------  -  -  
 72
    65
 73
     6
 40
20.0
 49
10.0
 49
-2.5
 49
1.25
 49
-2.5
 49
1.25
 49
-2.5
  0
LTYPE
  2
DOT
 70
    64
  3
-   -   -   -   -   -   -   -   
 72
    65
 73
     2
 40
2.5
 49
0.625
 49
-1.875
  0
LTYPE
  2
DUMMY
 70
    64
  3
ダミー
 72
    65
 73
     0
 40
0.0
  0
LTYPE
  2
RAND1
 70
    64
  3
ランダム線1
 72
    65
 73
     4
 40
10.0
 49
1.0
 49
-2.0
 49
3.0
 49
-4.0
  0
LTYPE
  2
RAND2
 70
    64
  3
ランダム線2
 72
    65
 73
     4
 40
14.0
 49
2.0
 49
-3.0
 49
4.0
 49
-5.0
  0
LTYPE
  2
RAND3
 70
    64
  3
ランダム線3
 72
    65
 73
     4
 40
18.0
 49
3.0
 49
-4.0
 49
5.0
 49
-6.0
  0
LTYPE
  2
RAND4
 70
    64
  3
ランダム線4
 72
    65
 73
     4
 40
22.0
 49
4.0
 49
-5.0
 49
6.0
 49
-7.0
  0
LTYPE
  2
RAND5
 70
    64
  3
ランダム線5
 72
    65
 73
     4
 40
26.0
 49
5.0
 49
-6.0
 49
7.0
 49
-8.0
  0
LTYPE
  2
LONG1
 70
    64
  3
----------  --  ----------  --  
 72
    65
 73
     4
 40
40.0
 49
32.5
 49
-2.5
 49
2.5
 49
-2.5
  0
LTYPE
  2
LONG2
 70
    64
  3
--------  -  -  --------  -  -  
 72
    65
 73
     6
 40
40.0
 49
30.0
 49
-2.5
 49
1.25
 49
-2.5
 49
1.25
 49
-2.5
  0
LTYPE
  2
LONG3
 70
    64
  3
+++++++++++++++..+++++++++++++++
 72
    65
 73
     2
 40
40.0
 49
37.5
 49
-2.5
  0
LTYPE
  2
LONG4
 70
    64
  3
+++++++++++++++..+++++++++++++++
 72
    65
 73
     2
 40
80.0
 49
75.0
 49
-5.0
  0
LTYPE
  2
LONG5
 70
    64
  3
----------  --  ----------  --  
 72
    65
 73
     4
 40
60.0
 49
37.5
 49
-7.5
 49
7.5
 49
-7.5
  0
LTYPE
  2
dashed
 70
   64
  3
-------   -------------   ------
 72
   65
 73
    2
 40
7.5
 49
6
 49
-1.5
  0
LTYPE
  2
dashed_spaced
 70
   64
  3
----        --------        ----
 72
   65
 73
    2
 40
12
 49
6
 49
-6
  0
LTYPE
  2
long_dashed_dotted
 70
   64
  3
------------- --- --------------
 72
   65
 73
    4
 40
15.25
 49
12
 49
-1.5
 49
0.25
 49
-1.5
  0
LTYPE
  2
long_dashed_double-dotted
 70
   64
  3
----------- --- --- ------------
 72
   65
 73
    6
 40
17
 49
12
 49
-1.5
 49
0.25
 49
-1.5
 49
0.25
 49
-1.5
  0
LTYPE
  2
long_dashed_triplicate-dotted
 70
   64
  3
--------- --- --- --- ----------
 72
   65
 73
    8
 40
18.75
 49
12
 49
-1.5
 49
0.25
 49
-1.5
 49
0.25
 49
-1.5
 49
0.25
 49
-1.5
  0
LTYPE
  2
dotted
 70
   64
  3
   -       -       -       -    
 72
   65
 73
    2
 40
1.75
 49
0.25
 49
-1.5
  0
LTYPE
  2
chain
 70
   64
  3
-------------- -- --------------
 72
   65
 73
    4
 40
18.5
 49
12
 49
-1.5
 49
3.5
 49
-1.5
  0
LTYPE
  2
chain_double_dash
 70
   64
  3
------------ -- -- -------------
 72
   65
 73
    6
 40
23.5
 49
12
 49
-1.5
 49
3.5
 49
-1.5
 49
3.5
 49
-1.5
  0
LTYPE
  2
dashed_dotted
 70
   64
  3
-----------     -     ----------
 72
   65
 73
    4
 40
9.25
 49
6
 49
-1.5
 49
0.25
 49
-1.5
  0
LTYPE
  2
double-dashed_dotted
 70
   64
  3
------   -----------   -   -----
 72
   65
 73
    6
 40
16.75
 49
6
 49
-1.5
 49
6
 49
-1.5
 49
0.25
 49
-1.5
  0
LTYPE
  2
dashed_double-dotted
 70
   64
  3
---------    -    -    ---------
 72
   65
 73
    6
 40
11
 49
6
 49
-1.5
 49
0.25
 49
-1.5
 49
0.25
 49
-1.5
  0
LTYPE
  2
double-dashed_double-dotted
 70
   64
  3
-----   ---------   -   -   ----
 72
   65
 73
    8
 40
18.5
 49
6
 49
-1.5
 49
6
 49
-1.5
 49
0.25
 49
-1.5
 49
0.25
 49
-1.5
  0
LTYPE
  2
dashed_triplicate-dotted
 70
   64
  3
-------    -    -    -    ------
 72
   65
 73
    8
 40
12.75
 49
6
 49
-1.5
 49
0.25
 49
-1.5
 49
0.25
 49
-1.5
 49
0.25
 49
-1.5
  0
LTYPE
  2
double-dashed_triplicate-dotted
 70
   64
  3
-----  ---------  -  -  -  -----
 72
   65
 73
   10
 40
20.25
 49
6
 49
-1.5
 49
6
 49
-1.5
 49
0.25
 49
-1.5
 49
0.25
 49
-1.5
 49
0.25
 49
-1.5
  0
LTYPE
  2
undefined
 70
   64
  3
--------------------------------
 72
   65
 73
    0
 40
0
  0
LTYPE
  2
VECTORWORKS_DASH_01
 70
   64
  3
----        --------        ----
 72
   65
 73
    2
 40
2.1165379999999993
 49
1.058075
 49
-1.058462999999999
  0
LTYPE
  2
_
 70
   64
  3
                                
 72
   65
 73
    0
 40
0
  0
LTYPE
  2
__19
 70
   64
  3
                                
 72
   65
 73
    0
 40
0
  0
LTYPE
  2
__20
 70
   64
  3
                                
 72
   65
 73
    0
 40
0
  0
LTYPE
  2
__21
 70
   64
  3
                                
 72
   65
 73
    0
 40
0
  0
LTYPE
  2
__22
 70
   64
  3
                                
 72
   65
 73
    0
 40
0
  0
LTYPE
  2
__23
 70
   64
  3
                                
 72
   65
 73
    0
 40
0
  0
LTYPE
  2
__24
 70
   64
  3
                                
 72
   65
 73
    0
 40
0
  0
LTYPE
  2
__25
 70
   64
  3
                                
 72
   65
 73
    0
 40
0
  0
LTYPE
  2
__26
 70
   64
  3
                                
 72
   65
 73
    0
 40
0
  0
LTYPE
  2
__27
 70
   64
  3
                                
 72
   65
 73
    0
 40
0
  0
LTYPE
  2
__28
 70
   64
  3
                                
 72
   65
 73
    0
 40
0
  0
LTYPE
  2
__29
 70
   64
  3
                                
 72
   65
 73
    0
 40
0
  0
LTYPE
  2
__30
 70
   64
  3
                                
 72
   65
 73
    0
 40
0
  0
LTYPE
  2
__31
 70
   64
  3
                                
 72
   65
 73
    0
 40
0
  0
LTYPE
  2
__32
 70
   64
  3
                                
 72
   65
 73
    0
 40
0
  0
ENDTAB
  0
TABLE
  2
STYLE
  5
3
100
AcDbSymbolTable
 70
     1
  0
STYLE
  5
10
100
AcDbSymbolTableRecord
100
AcDbTextStyleTableRecord
  2
STANDARD
 70
     0
 40
0.0
 41
1.0
 50
0.0
 71
     0
 42
0.2
  3
txt
  4
bigfont.shx
  0
STYLE
  5
26
100
AcDbSymbolTableRecord
100
AcDbTextStyleTableRecord
  2
TATEGAKI
 70
    68
 40
0.0
 41
1.0
 50
0.0
 71
     0
 42
1.0
  3
txt
  4
bigfont.shx
  0
ENDTAB
  0
TABLE
  2
LAYER
 70
    7
  0
LAYER
  2
_0-0_
 70
   64
 62
    7
  6
CONTINUOUS
  0
LAYER
  2
_0-1_
 70
   64
 62
    7
  6
CONTINUOUS
  0
LAYER
  2
_0-2_
 70
   64
 62
    7
  6
CONTINUOUS
  0
LAYER
  2
_0-3_
 70
   64
 62
    7
  6
CONTINUOUS
  0
LAYER
  2
_0-4_
 70
   64
 62
    7
  6
CONTINUOUS
  0
LAYER
  2
_0-f_
 70
   64
 62
    7
  6
CONTINUOUS
  0
LAYER
  2
ADD_LINE
 70
   64
 62
    7
  6
CONTINUOUS
  0
ENDTAB
  0
ENDSEC
  0
SECTION
  2
BLOCKS
  0
BLOCK
  2
-000-_D15
 70
   64
 10
0
 20
0
 30
0
  0
LINE
  8
_0-4_
  6
CONTINUOUS
 62
    7
 10
1545
 20
277.2624999999993
 11
1545
 21
342.5599999999992
  0
LINE
  8
_0-4_
  6
CONTINUOUS
 62
    7
 10
1499.249999999997
 20
322.06249999999931
 11
1499.249999999997
 21
342.5599999999992
  0
LINE
  8
_0-4_
  6
CONTINUOUS
 62
    7
 10
1544.8199999999999
 20
342.37999999999919
 11
1499.4299999999971
 21
342.37999999999919
  0
SOLID
  8
_0-4_
  6
CONTINUOUS
 62
    7
 10
1544.8199999999999
 20
342.40999999999917
 11
1544.8199999999999
 21
342.34999999999922
 12
1545
 22
342.37999999999919
 13
1545
 23
342.37999999999919
  0
SOLID
  8
_0-4_
  6
CONTINUOUS
 62
    7
 10
1499.4299999999971
 20
342.40999999999917
 11
1499.4299999999971
 21
342.34999999999922
 12
1499.249999999997
 22
342.37999999999919
 13
1499.249999999997
 23
342.37999999999919
  0
TEXT
  8
_0-4_
 62
    7
 10
1509.2249999999999
 20
342.46999999999917
 40
16
 41
1
 50
0
  1
45.8
  0
POINT
  8
_1-1_Defpoints
 62
    7
 10
1545
 20
277.1999999999993
  0
POINT
  8
_1-1_Defpoints
 62
    7
 10
1499.249999999997
 20
321.99999999999931
  0
POINT
  8
_1-1_Defpoints
 62
    7
 10
1499.249999999997
 20
342.37999999999919
  0
ENDBLK
  0
BLOCK
  2
-001-_D16
 70
   64
 10
0
 20
0
 30
0
  0
LINE
  8
_0-4_
  6
CONTINUOUS
 62
    7
 10
1499.9375
 20
326.5000000001188
 11
1489.8200000000049
 21
326.5000000001188
  0
LINE
  8
_0-4_
  6
CONTINUOUS
 62
    7
 10
1499.9375
 20
281.99999999999931
 11
1489.8200000000049
 21
281.99999999999931
  0
LINE
  8
_0-4_
  6
CONTINUOUS
 62
    7
 10
1490.000000000005
 20
326.32000000011879
 11
1490.000000000005
 21
282.17999999999932
  0
SOLID
  8
_0-4_
  6
CONTINUOUS
 62
    7
 10
1489.970000000005
 20
326.32000000011879
 11
1490.0300000000061
 21
326.32000000011879
 12
1490.000000000005
 22
326.5000000001188
 13
1490.000000000005
 23
326.5000000001188
  0
SOLID
  8
_0-4_
  6
CONTINUOUS
 62
    7
 10
1489.970000000005
 20
282.17999999999932
 11
1490.0300000000061
 21
282.17999999999932
 12
1490.000000000005
 22
281.99999999999931
 13
1490.000000000005
 23
281.99999999999931
  0
TEXT
  8
_0-4_
 62
    7
 10
1489.910000000005
 20
288.2500000000586
 40
16
 41
1
 50
90
  1
44.5
  0
POINT
  8
_1-1_Defpoints
 62
    7
 10
1500
 20
326.5000000001188
  0
POINT
  8
_1-1_Defpoints
 62
    7
 10
1500
 20
281.99999999999931
  0
POINT
  8
_1-1_Defpoints
 62
    7
 10
1490.000000000005
 20
281.99999999999931
  0
ENDBLK
  0
BLOCK
  2
-002-_D20
 70
   64
 10
0
 20
0
 30
0
  0
LINE
  8
_0-4_
  6
CONTINUOUS
 62
    7
 10
1527
 20
266.93749999999909
 11
1527
 21
247.19999999999899
  0
LINE
  8
_0-4_
  6
CONTINUOUS
 62
    7
 10
1563
 20
266.93749999999909
 11
1563
 21
247.19999999999899
  0
LINE
  8
_0-4_
  6
CONTINUOUS
 62
    7
 10
1527.18
 20
247.379999999999
 11
1562.8199999999999
 21
247.379999999999
  0
SOLID
  8
_0-4_
  6
CONTINUOUS
 62
    7
 10
1527.18
 20
247.409999999999
 11
1527.18
 21
247.34999999999899
 12
1527
 22
247.379999999999
 13
1527
 23
247.379999999999
  0
SOLID
  8
_0-4_
  6
CONTINUOUS
 62
    7
 10
1562.8199999999999
 20
247.409999999999
 11
1562.8199999999999
 21
247.34999999999899
 12
1563
 22
247.379999999999
 13
1563
 23
247.379999999999
  0
TEXT
  8
_0-4_
 62
    7
 10
1529
 20
247.469999999999
 40
16
 41
1
 50
0
  1
36.0
  0
POINT
  8
_1-1_Defpoints
 62
    7
 10
1527
 20
266.99999999999909
  0
POINT
  8
_1-1_Defpoints
 62
    7
 10
1563
 20
266.99999999999909
  0
POINT
  8
_1-1_Defpoints
 62
    7
 10
1563
 20
247.379999999999
  0
ENDBLK
  0
BLOCK
  2
-003-_D24
 70
   64
 10
0
 20
0
 30
0
  0
LINE
  8
_0-4_
  6
CONTINUOUS
 62
    7
 10
1524.4499999999989
 20
905.93749999999965
 11
1524.4499999999989
 21
895.8199999999997
  0
LINE
  8
_0-4_
  6
CONTINUOUS
 62
    7
 10
1565.4499999999989
 20
905.93749999999965
 11
1565.4499999999989
 21
895.8199999999997
  0
LINE
  8
_0-4_
  6
CONTINUOUS
 62
    7
 10
1524.6299999999989
 20
895.99999999999965
 11
1565.269999999999
 21
895.99999999999965
  0
SOLID
  8
_0-4_
  6
CONTINUOUS
 62
    7
 10
1524.6299999999989
 20
896.02999999999963
 11
1524.6299999999989
 21
895.96999999999957
 12
1524.4499999999989
 22
895.99999999999965
 13
1524.4499999999989
 23
895.99999999999965
  0
SOLID
  8
_0-4_
  6
CONTINUOUS
 62
    7
 10
1565.269999999999
 20
896.02999999999963
 11
1565.269999999999
 21
895.96999999999957
 12
1565.4499999999989
 22
895.99999999999965
 13
1565.4499999999989
 23
895.99999999999965
  0
TEXT
  8
_0-4_
 62
    7
 10
1528.975000448245
 20
896.08999999999969
 40
16
 41
1
 50
0
  1
41.0
  0
POINT
  8
_1-1_Defpoints
 62
    7
 10
1524.4499999999989
 20
905.99999999999954
  0
POINT
  8
_1-1_Defpoints
 62
    7
 10
1565.4499999999989
 20
905.99999999999954
  0
POINT
  8
_1-1_Defpoints
 62
    7
 10
1565.4499999999989
 20
895.99999999999965
  0
ENDBLK
  0
BLOCK
  2
-004-_D27
 70
   64
 10
0
 20
0
 30
0
  0
LINE
  8
_0-4_
  6
CONTINUOUS
 62
    7
 10
149.79999999999989
 20
1025.9375
 11
149.79999999999989
 21
1005.82
  0
LINE
  8
_0-4_
  6
CONTINUOUS
 62
    7
 10
110.2
 20
1025.9375
 11
110.2
 21
1005.82
  0
LINE
  8
_0-4_
  6
CONTINUOUS
 62
    7
 10
149.61999999999989
 20
1006
 11
110.37999999999999
 21
1006
  0
SOLID
  8
_0-4_
  6
CONTINUOUS
 62
    7
 10
149.61999999999989
 20
1006.0299999999999
 11
149.61999999999989
 21
1005.97
 12
149.79999999999989
 22
1006
 13
149.79999999999989
 23
1006
  0
SOLID
  8
_0-4_
  6
CONTINUOUS
 62
    7
 10
110.37999999999999
 20
1006.0299999999999
 11
110.37999999999999
 21
1005.97
 12
110.2
 22
1006
 13
110.2
 23
1006
  0
TEXT
  8
_0-4_
 62
    7
 10
113.99999999999988
 20
1006.09
 40
16
 41
1
 50
0
  1
39.6
  0
POINT
  8
_1-1_Defpoints
 62
    7
 10
149.79999999999989
 20
1026
  0
POINT
  8
_1-1_Defpoints
 62
    7
 10
110.2
 20
1026
  0
POINT
  8
_1-1_Defpoints
 62
    7
 10
110.2
 20
1006
  0
ENDBLK
  0
BLOCK
  2
-005-_D30
 70
   64
 10
0
 20
0
 30
0
  0
LINE
  8
_0-4_
  6
CONTINUOUS
 62
    7
 10
1610.0625000000009
 20
916.00000000000011
 11
1620.1800000000021
 21
916.00000000000011
  0
LINE
  8
_0-4_
  6
CONTINUOUS
 62
    7
 10
1610.0625000000009
 20
931.40000000000009
 11
1620.1800000000021
 21
931.40000000000009
  0
LINE
  8
_0-4_
  6
CONTINUOUS
 62
    7
 10
1620.000000000002
 20
916.18000000000006
 11
1620.000000000002
 21
931.22000000000025
  0
SOLID
  8
_0-4_
  6
CONTINUOUS
 62
    7
 10
1619.970000000002
 20
916.18000000000006
 11
1620.030000000002
 21
916.18000000000006
 12
1620.000000000002
 22
916.00000000000011
 13
1620.000000000002
 23
916.00000000000011
  0
SOLID
  8
_0-4_
  6
CONTINUOUS
 62
    7
 10
1619.970000000002
 20
931.22000000000025
 11
1620.030000000002
 21
931.22000000000025
 12
1620.000000000002
 22
931.40000000000009
 13
1620.000000000002
 23
931.40000000000009
  0
TEXT
  8
_0-4_
 62
    7
 10
1619.9100000000019
 20
907.69999999999936
 40
16
 41
1
 50
90
  1
15.4
  0
POINT
  8
_1-1_Defpoints
 62
    7
 10
1610.0000000000009
 20
916.00000000000011
  0
POINT
  8
_1-1_Defpoints
 62
    7
 10
1610.0000000000009
 20
931.40000000000009
  0
POINT
  8
_1-1_Defpoints
 62
    7
 10
1620.000000000002
 20
931.40000000000009
  0
ENDBLK
  0
BLOCK
  2
-006-_D33
 70
   64
 10
0
 20
0
 30
0
  0
LINE
  8
_0-4_
  6
CONTINUOUS
 62
    7
 10
170.9
 20
425.9375
 11
170.9
 21
405.81999999999999
  0
LINE
  8
_0-4_
  6
CONTINUOUS
 62
    7
 10
189.09999999999999
 20
425.9375
 11
189.09999999999999
 21
405.81999999999999
  0
LINE
  8
_0-4_
  6
CONTINUOUS
 62
    7
 10
171.08000000000001
 20
406
 11
188.91999999999998
 21
406
  0
SOLID
  8
_0-4_
  6
CONTINUOUS
 62
    7
 10
171.08000000000001
 20
406.02999999999991
 11
171.08000000000001
 21
405.97000000000002
 12
170.9
 22
406
 13
170.9
 23
406
  0
SOLID
  8
_0-4_
  6
CONTINUOUS
 62
    7
 10
188.91999999999998
 20
406.02999999999991
 11
188.91999999999998
 21
405.97000000000002
 12
189.09999999999999
 22
406
 13
189.09999999999999
 23
406
  0
TEXT
  8
_0-4_
 62
    7
 10
164
 20
406.08999999999997
 40
16
 41
1
 50
0
  1
18.2
  0
POINT
  8
_1-1_Defpoints
 62
    7
 10
170.9
 20
426
  0
POINT
  8
_1-1_Defpoints
 62
    7
 10
189.09999999999999
 20
426
  0
POINT
  8
_1-1_Defpoints
 62
    7
 10
189.09999999999999
 20
406
  0
ENDBLK
  0
BLOCK
  2
-007-_D34
 70
   64
 10
0
 20
0
 30
0
  0
LINE
  8
_0-4_
  6
CONTINUOUS
 62
    7
 10
100
 20
425.9375
 11
100
 21
405.81999999999999
  0
LINE
  8
_0-4_
  6
CONTINUOUS
 62
    7
 10
125.79999999999999
 20
425.9375
 11
125.79999999999999
 21
405.81999999999999
  0
LINE
  8
_0-4_
  6
CONTINUOUS
 62
    7
 10
100.18
 20
406
 11
125.62
 21
406
  0
SOLID
  8
_0-4_
  6
CONTINUOUS
 62
    7
 10
100.18
 20
406.02999999999991
 11
100.18
 21
405.97000000000002
 12
100
 22
406
 13
100
 23
406
  0
SOLID
  8
_0-4_
  6
CONTINUOUS
 62
    7
 10
125.62
 20
406.02999999999991
 11
125.62
 21
405.97000000000002
 12
125.79999999999999
 22
406
 13
125.79999999999999
 23
406
  0
TEXT
  8
_0-4_
 62
    7
 10
96.900000000000005
 20
406.08999999999997
 40
16
 41
1
 50
0
  1
25.8
  0
POINT
  8
_1-1_Defpoints
 62
    7
 10
100
 20
426
  0
POINT
  8
_1-1_Defpoints
 62
    7
 10
125.79999999999999
 20
426
  0
POINT
  8
_1-1_Defpoints
 62
    7
 10
125.79999999999999
 20
406
  0
ENDBLK
  0
ENDSEC
  0
SECTION
  2
ENTITIES
  0
LINE
  8
_0-f_
  6
CONTINUOUS
 62
    7
 10
1490
 20
917.46192893400973
 11
1490
 21
942.4619289340095
  0
LINE
  8
_0-f_
  6
CONTINUOUS
 62
    7
 10
1491.599999999998
 20
942.4619289340095
 11
1485.804174788823
 21
942.4619289340095
  0
LINE
  8
_0-f_
  6
CONTINUOUS
 62
    7
 10
230
 20
957.46192893401018
 11
230
 21
757.46192893401018
  0
LINE
  8
_0-f_
  6
CONTINUOUS
 62
    7
 10
1650
 20
1157.4619289340103
 11
0
 21
1157.4619289340103
  0
LINE
  8
_0-f_
  6
CONTINUOUS
 62
    7
 10
1650
 20
1187.4619289340103
 11
1650
 21
1157.4619289340103
  0
LINE
  8
_0-f_
  6
CONTINUOUS
 62
    7
 10
1650
 20
1157.4619289340103
 11
1680
 21
1157.4619289340103
  0
LINE
  8
_0-f_
  6
CONTINUOUS
 62
    7
 10
30
 20
1187.4619289340103
 11
30
 21
3.4619289340101886
  0
LINE
  8
_0-f_
  6
CONTINUOUS
 62
    7
 10
1650
 20
3.4619289340101886
 11
1650
 21
1187.4619289340103
  0
LINE
  8
_0-f_
  6
CONTINUOUS
 62
    7
 10
1650
 20
33.461928934010188
 11
1540
 21
33.461928934010188
  0
LINE
  8
_0-f_
  6
CONTINUOUS
 62
    7
 10
1650
 20
143.46192893401018
 11
1650
 21
33.461928934010188
  0
LINE
  8
_0-f_
  6
CONTINUOUS
 62
    7
 10
1650
 20
143.46192893401018
 11
1650
 21
343.46192893401018
  0
LINE
  8
_0-f_
  6
CONTINUOUS
 62
    7
 10
1650
 20
1157.4619289340103
 11
1540
 21
1157.4619289340103
  0
LINE
  8
_0-f_
  6
CONTINUOUS
 62
    7
 10
1650
 20
957.46192893401018
 11
1650
 21
1157.4619289340103
  0
LINE
  8
_0-f_
  6
CONTINUOUS
 62
    7
 10
1450
 20
33.461928934010188
 11
1650
 21
33.461928934010188
  0
LINE
  8
_0-f_
  6
CONTINUOUS
 62
    7
 10
1650
 20
33.461928934010188
 11
1650
 21
143.46192893401018
  0
LINE
  8
_0-f_
  6
CONTINUOUS
 62
    7
 10
30
 20
33.461928934010188
 11
230
 21
33.461928934010188
  0
LINE
  8
_0-f_
  6
CONTINUOUS
 62
    7
 10
30
 20
143.46192893401018
 11
30
 21
33.461928934010188
  0
LINE
  8
_0-f_
  6
CONTINUOUS
 62
    7
 10
1650
 20
33.461928934010188
 11
1500
 21
33.461928934010188
  0
LINE
  8
_0-f_
  6
CONTINUOUS
 62
    7
 10
1650
 20
183.46192893401018
 11
1650
 21
33.461928934010188
  0
LINE
  8
_0-f_
  6
CONTINUOUS
 62
    7
 10
30
 20
1157.4619289340103
 11
230
 21
1157.4619289340103
  0
LINE
  8
_0-f_
  6
CONTINUOUS
 62
    7
 10
230
 20
1157.4619289340103
 11
230
 21
957.46192893401018
  0
LINE
  8
_0-f_
  6
CONTINUOUS
 62
    7
 10
230
 20
957.46192893401018
 11
30
 21
957.46192893401018
  0
LINE
  8
_0-f_
  6
CONTINUOUS
 62
    7
 10
30
 20
957.46192893401018
 11
30
 21
1157.4619289340103
  0
LINE
  8
_0-f_
  6
CONTINUOUS
 62
    7
 10
30
 20
957.46192893401018
 11
230
 21
957.46192893401018
  0
LINE
  8
_0-f_
  6
CONTINUOUS
 62
    7
 10
230
 20
757.46192893401018
 11
30
 21
757.46192893401018
  0
LINE
  8
_0-f_
  6
CONTINUOUS
 62
    7
 10
30
 20
757.46192893401018
 11
30
 21
957.46192893401018
  0
LINE
  8
_0-f_
  6
CONTINUOUS
 62
    7
 10
30
 20
757.46192893401018
 11
230
 21
757.46192893401018
  0
LINE
  8
_0-f_
  6
CONTINUOUS
 62
    7
 10
230
 20
757.46192893401018
 11
230
 21
557.46192893401018
  0
LINE
  8
_0-f_
  6
CONTINUOUS
 62
    7
 10
230
 20
557.46192893401018
 11
30
 21
557.46192893401018
  0
LINE
  8
_0-f_
  6
CONTINUOUS
 62
    7
 10
30
 20
557.46192893401018
 11
30
 21
757.46192893401018
  0
LINE
  8
_0-f_
  6
CONTINUOUS
 62
    7
 10
30
 20
557.46192893401018
 11
230
 21
557.46192893401018
  0
LINE
  8
_0-f_
  6
CONTINUOUS
 62
    7
 10
230
 20
557.46192893401018
 11
230
 21
357.46192893401018
  0
LINE
  8
_0-f_
  6
CONTINUOUS
 62
    7
 10
230
 20
357.46192893401018
 11
30
 21
357.46192893401018
  0
LINE
  8
_0-f_
  6
CONTINUOUS
 62
    7
 10
30
 20
357.46192893401018
 11
30
 21
557.46192893401018
  0
LINE
  8
_0-f_
  6
CONTINUOUS
 62
    7
 10
30
 20
357.46192893401018
 11
230
 21
357.46192893401018
  0
LINE
  8
_0-f_
  6
CONTINUOUS
 62
    7
 10
230
 20
357.46192893401018
 11
230
 21
157.46192893401018
  0
LINE
  8
_0-f_
  6
CONTINUOUS
 62
    7
 10
230
 20
157.46192893401018
 11
30
 21
157.46192893401018
  0
LINE
  8
_0-f_
  6
CONTINUOUS
 62
    7
 10
30
 20
157.46192893401018
 11
30
 21
357.46192893401018
  0
POINT
  8
_0-f_
 62
    7
 10
160.00000000000136
 20
133.46192893400836
  0
POINT
  8
_0-f_
 62
    7
 10
160.00000000000136
 20
43.461928934008369
  0
POINT
  8
_0-f_
 62
    7
 10
300
 20
143.46192893401018
  0
LINE
  8
_0-f_
  6
CONTINUOUS
 62
    7
 10
1545
 20
143.46192893401018
 11
1545
 21
1057.4619289340093
  0
POINT
  8
_0-f_
 62
    7
 10
1500
 20
1057.4619289340093
  0
POINT
  8
_0-f_
 62
    7
 10
1590
 20
1057.4619289340093
  0
POINT
  8
_0-f_
 62
    7
 10
1490
 20
283.46192893400939
  0
POINT
  8
_0-f_
 62
    7
 10
1600
 20
283.46192893400927
  0
POINT
  8
_0-f_
 62
    7
 10
1490
 20
917.46192893400973
  0
POINT
  8
_0-f_
 62
    7
 10
1600
 20
917.46192893401018
  0
POINT
  8
_0-f_
 62
    7
 10
270
 20
253.46192893400939
  0
POINT
  8
_0-f_
 62
    7
 10
275
 20
258.46192893400939
  0
POINT
  8
_0-f_
 62
    7
 10
300
 20
283.46192893400939
  0
POINT
  8
_0-f_
 62
    7
 10
270
 20
947.46192893400984
  0
POINT
  8
_0-f_
 62
    7
 10
275
 20
942.46192893400973
  0
POINT
  8
_0-f_
 62
    7
 10
300
 20
917.46192893400973
  0
POINT
  8
_0-f_
 62
    7
 10
1539.999999999999
 20
43.461928934008142
  0
POINT
  8
_0-f_
 62
    7
 10
1400
 20
143.46192893401018
  0
POINT
  8
_0-f_
 62
    7
 10
1430
 20
947.46192893400984
  0
POINT
  8
_0-f_
 62
    7
 10
1400
 20
917.46192893400973
  0
POINT
  8
_0-f_
 62
    7
 10
1425
 20
942.46192893400973
  0
POINT
  8
_0-f_
 62
    7
 10
1400
 20
283.46192893400939
  0
POINT
  8
_0-f_
 62
    7
 10
1425
 20
258.46192893400939
  0
POINT
  8
_0-f_
 62
    7
 10
1430
 20
253.46192893400939
  0
LINE
  8
_0-f_
  6
CONTINUOUS
 62
    7
 10
230
 20
1157.4619289340103
 11
430
 21
1157.4619289340103
  0
LINE
  8
_0-f_
  6
CONTINUOUS
 62
    7
 10
430
 20
1157.4619289340103
 11
430
 21
957.46192893401018
  0
LINE
  8
_0-f_
  6
CONTINUOUS
 62
    7
 10
430
 20
957.46192893401018
 11
230
 21
957.46192893401018
  0
LINE
  8
_0-f_
  6
CONTINUOUS
 62
    7
 10
230
 20
957.46192893401018
 11
230
 21
1157.4619289340103
  0
LINE
  8
_0-f_
  6
CONTINUOUS
 62
    7
 10
430
 20
1157.4619289340103
 11
630
 21
1157.4619289340103
  0
LINE
  8
_0-f_
  6
CONTINUOUS
 62
    7
 10
630
 20
1157.4619289340103
 11
630
 21
957.46192893401018
  0
LINE
  8
_0-f_
  6
CONTINUOUS
 62
    7
 10
430
 20
957.46192893401018
 11
430
 21
1157.4619289340103
  0
LINE
  8
_0-f_
  6
CONTINUOUS
 62
    7
 10
630
 20
1157.4619289340103
 11
830
 21
1157.4619289340103
  0
LINE
  8
_0-f_
  6
CONTINUOUS
 62
    7
 10
830
 20
1157.4619289340103
 11
830
 21
957.46192893401018
  0
LINE
  8
_0-f_
  6
CONTINUOUS
 62
    7
 10
830
 20
957.46192893401018
 11
630
 21
957.46192893401018
  0
LINE
  8
_0-f_
  6
CONTINUOUS
 62
    7
 10
630
 20
957.46192893401018
 11
630
 21
1157.4619289340103
  0
LINE
  8
_0-f_
  6
CONTINUOUS
 62
    7
 10
830
 20
1157.4619289340103
 11
1030
 21
1157.4619289340103
  0
LINE
  8
_0-f_
  6
CONTINUOUS
 62
    7
 10
1030
 20
1157.4619289340103
 11
1030
 21
957.46192893401018
  0
LINE
  8
_0-f_
  6
CONTINUOUS
 62
    7
 10
1030
 20
957.46192893401018
 11
830
 21
957.46192893401018
  0
LINE
  8
_0-f_
  6
CONTINUOUS
 62
    7
 10
830
 20
957.46192893401018
 11
830
 21
1157.4619289340103
  0
LINE
  8
_0-f_
  6
CONTINUOUS
 62
    7
 10
1030
 20
1157.4619289340103
 11
1230
 21
1157.4619289340103
  0
LINE
  8
_0-f_
  6
CONTINUOUS
 62
    7
 10
1230
 20
1157.4619289340103
 11
1230
 21
957.46192893401018
  0
LINE
  8
_0-f_
  6
CONTINUOUS
 62
    7
 10
1230
 20
957.46192893401018
 11
1030
 21
957.46192893401018
  0
LINE
  8
_0-f_
  6
CONTINUOUS
 62
    7
 10
1030
 20
957.46192893401018
 11
1030
 21
1157.4619289340103
  0
LINE
  8
_0-f_
  6
CONTINUOUS
 62
    7
 10
1230
 20
1157.4619289340103
 11
1430
 21
1157.4619289340103
  0
LINE
  8
_0-f_
  6
CONTINUOUS
 62
    7
 10
1430
 20
1157.4619289340103
 11
1430
 21
957.46192893401018
  0
LINE
  8
_0-f_
  6
CONTINUOUS
 62
    7
 10
1430
 20
957.46192893401018
 11
1230
 21
957.46192893401018
  0
LINE
  8
_0-f_
  6
CONTINUOUS
 62
    7
 10
1230
 20
957.46192893401018
 11
1230
 21
1157.4619289340103
  0
LINE
  8
_0-f_
  6
CONTINUOUS
 62
    7
 10
1400
 20
917.46192893400973
 11
1400
 21
283.46192893400939
  0
LINE
  8
_0-f_
  6
CONTINUOUS
 62
    7
 10
300
 20
283.46192893400939
 11
300
 21
917.46192893400973
  0
LINE
  8
_0-f_
  6
CONTINUOUS
 62
    7
 10
30
 20
1057.4619289340103
 11
1430
 21
1057.4619289340103
  0
LINE
  8
_0-f_
  6
CONTINUOUS
 62
    7
 10
130
 20
1157.4619289340103
 11
130
 21
157.46192893401018
  0
LINE
  8
_0-f_
  6
CONTINUOUS
 62
    7
 10
230
 20
857.46192893401018
 11
30
 21
857.46192893401018
  0
LINE
  8
_0-f_
  6
CONTINUOUS
 62
    7
 10
230
 20
657.46192893401018
 11
30
 21
657.46192893401018
  0
LINE
  8
_0-f_
  6
CONTINUOUS
 62
    7
 10
230
 20
557.46192893401018
 11
30
 21
557.46192893401018
  0
LINE
  8
_0-f_
  6
CONTINUOUS
 62
    7
 10
230
 20
457.46192893401018
 11
30
 21
457.46192893401018
  0
LINE
  8
_0-f_
  6
CONTINUOUS
 62
    7
 10
230
 20
357.46192893401018
 11
30
 21
357.46192893401018
  0
LINE
  8
_0-f_
  6
CONTINUOUS
 62
    7
 10
230
 20
257.46192893401018
 11
30
 21
257.46192893401018
  0
LINE
  8
_0-f_
  6
CONTINUOUS
 62
    7
 10
330
 20
1157.4619289340103
 11
330
 21
957.46192893401018
  0
LINE
  8
_0-f_
  6
CONTINUOUS
 62
    7
 10
430
 20
1157.4619289340103
 11
430
 21
957.46192893401018
  0
LINE
  8
_0-f_
  6
CONTINUOUS
 62
    7
 10
530
 20
1157.4619289340103
 11
530
 21
957.46192893401018
  0
LINE
  8
_0-f_
  6
CONTINUOUS
 62
    7
 10
630
 20
1157.4619289340103
 11
630
 21
957.46192893401018
  0
LINE
  8
_0-f_
  6
CONTINUOUS
 62
    7
 10
730
 20
1157.4619289340103
 11
730
 21
957.46192893401018
  0
LINE
  8
_0-f_
  6
CONTINUOUS
 62
    7
 10
830
 20
1157.4619289340103
 11
830
 21
957.46192893401018
  0
LINE
  8
_0-f_
  6
CONTINUOUS
 62
    7
 10
930
 20
1157.4619289340103
 11
930
 21
957.46192893401018
  0
LINE
  8
_0-f_
  6
CONTINUOUS
 62
    7
 10
1030
 20
1157.4619289340103
 11
1030
 21
957.46192893401018
  0
LINE
  8
_0-f_
  6
CONTINUOUS
 62
    7
 10
1130
 20
1157.4619289340103
 11
1130
 21
957.46192893401018
  0
LINE
  8
_0-f_
  6
CONTINUOUS
 62
    7
 10
1230
 20
1157.4619289340103
 11
1230
 21
957.46192893401018
  0
LINE
  8
_0-f_
  6
CONTINUOUS
 62
    7
 10
1330
 20
1157.4619289340103
 11
1330
 21
957.46192893401018
  0
LINE
  8
_0-f_
  6
CONTINUOUS
 62
    7
 10
1425
 20
942.46192893400973
 11
1425
 21
258.46192893400939
  0
LINE
  8
_0-f_
  6
CONTINUOUS
 62
    7
 10
275
 20
258.46192893400939
 11
275
 21
942.46192893400973
  0
LINE
  8
_0-f_
  6
CONTINUOUS
 62
    7
 10
270
 20
947.46192893400984
 11
270
 21
253.46192893400939
  0
LINE
  8
_0-f_
  6
CONTINUOUS
 62
    7
 10
1430
 20
253.46192893400939
 11
1430
 21
947.46192893400984
  0
POINT
  8
_0-f_
 62
    7
 10
0
 20
1187.4619289340103
  0
POINT
  8
_0-f_
 62
    7
 10
1680
 20
1187.4619289340103
  0
POINT
  8
_0-f_
 62
    7
 10
1680
 20
1187.4619289340103
  0
POINT
  8
_0-f_
 62
    7
 10
1680
 20
3.4619289340101886
  0
POINT
  8
_0-f_
 62
    7
 10
0
 20
3.4619289340101886
  0
LINE
  8
_0-f_
  6
CONTINUOUS
 62
    7
 10
0
 20
1187.4619289340103
 11
1680
 21
1187.4619289340103
  0
LINE
  8
_0-f_
  6
CONTINUOUS
 62
    7
 10
1680
 20
1187.4619289340103
 11
1680
 21
3.4619289340101886
  0
LINE
  8
_0-f_
  6
CONTINUOUS
 62
    7
 10
1680
 20
3.4619289340101886
 11
0
 21
3.4619289340101886
  0
LINE
  8
_0-f_
  6
CONTINUOUS
 62
    7
 10
0
 20
3.4619289340101886
 11
0
 21
1187.4619289340103
  0
LINE
  8
_0-f_
  6
CONTINUOUS
 62
    7
 10
230
 20
602.96192893400984
 11
1650
 21
602.96192893400984
  0
LINE
  8
_0-f_
  6
CONTINUOUS
 62
    7
 10
230
 20
597.96192893400973
 11
1650
 21
597.96192893400973
  0
LINE
  8
_0-f_
  6
CONTINUOUS
 62
    7
 10
480.83333333333308
 20
957.46192893401018
 11
480.83333333333308
 21
33.461928934010188
  0
LINE
  8
_0-f_
  6
CONTINUOUS
 62
    7
 10
1219.1666666666669
 20
957.46192893401018
 11
1219.1666666666669
 21
33.461928934010188
  0
LINE
  8
_0-f_
  6
CONTINUOUS
 62
    7
 10
666.66666666666674
 20
33.461928934010188
 11
666.66666666666674
 21
957.46192893401018
  0
LINE
  8
_0-f_
  6
CONTINUOUS
 62
    7
 10
1033.333333333333
 20
33.461928934010188
 11
1033.333333333333
 21
957.46192893401018
  0
LINE
  8
_0-f_
  6
CONTINUOUS
 62
    7
 10
852.5
 20
957.46192893401018
 11
852.5
 21
33.461928934010188
  0
LINE
  8
_0-f_
  6
CONTINUOUS
 62
    7
 10
847.49999999999988
 20
957.46192893401018
 11
847.49999999999988
 21
33.461928934010188
  0
LINE
  8
_0-f_
  6
CONTINUOUS
 62
    7
 10
1214.1666666666669
 20
957.46192893401018
 11
1214.1666666666669
 21
33.461928934010188
  0
LINE
  8
_0-f_
  6
CONTINUOUS
 62
    7
 10
485.8333333333332
 20
957.46192893401018
 11
485.8333333333332
 21
33.461928934010188
  0
LINE
  8
_0-f_
  6
CONTINUOUS
 62
    7
 10
1600
 20
917.46192893401018
 11
1600
 21
922.46192893401018
  0
LINE
  8
_0-f_
  6
CONTINUOUS
 62
    7
 10
1490
 20
917.46192893400973
 11
1490
 21
922.46192893400984
  0
LINE
  8
_0-f_
  6
CONTINUOUS
 62
    7
 10
1490
 20
922.46192893400984
 11
1600
 21
922.46192893400984
  0
LINE
  8
_0-1_
  6
CONTINUOUS
 62
    7
 10
112.35000000000013
 20
862.2619289340098
 11
121.35000000000013
 21
862.2619289340098
  0
LINE
  8
_0-1_
  6
CONTINUOUS
 62
    7
 10
121.35000000000013
 20
862.2619289340098
 11
121.35000000000013
 21
858.26192893400991
  0
LINE
  8
_0-1_
  6
CONTINUOUS
 62
    7
 10
121.35000000000013
 20
858.26192893400991
 11
112.35000000000013
 21
858.26192893400991
  0
LINE
  8
_0-1_
  6
CONTINUOUS
 62
    7
 10
112.35000000000013
 20
858.26192893400991
 11
112.35000000000013
 21
862.2619289340098
  0
LINE
  8
_0-1_
  6
CONTINUOUS
 62
    7
 10
123.85000000000013
 20
862.2619289340098
 11
132.85000000000013
 21
862.2619289340098
  0
LINE
  8
_0-1_
  6
CONTINUOUS
 62
    7
 10
132.85000000000013
 20
862.2619289340098
 11
132.85000000000013
 21
858.26192893400991
  0
LINE
  8
_0-1_
  6
CONTINUOUS
 62
    7
 10
132.85000000000013
 20
858.26192893400991
 11
123.85000000000013
 21
858.26192893400991
  0
LINE
  8
_0-1_
  6
CONTINUOUS
 62
    7
 10
123.85000000000013
 20
858.26192893400991
 11
123.85000000000013
 21
862.2619289340098
  0
LINE
  8
_0-1_
  6
CONTINUOUS
 62
    7
 10
135.35000000000013
 20
862.2619289340098
 11
144.35000000000013
 21
862.2619289340098
  0
LINE
  8
_0-1_
  6
CONTINUOUS
 62
    7
 10
144.35000000000013
 20
862.2619289340098
 11
144.35000000000013
 21
858.26192893400991
  0
LINE
  8
_0-1_
  6
CONTINUOUS
 62
    7
 10
144.35000000000013
 20
858.26192893400991
 11
135.35000000000013
 21
858.26192893400991
  0
LINE
  8
_0-1_
  6
CONTINUOUS
 62
    7
 10
135.35000000000013
 20
858.26192893400991
 11
135.35000000000013
 21
862.2619289340098
  0
ARC
  8
_0-1_
  6
CONTINUOUS
 62
    7
 10
146.45000089649033
 20
858.66192803751994
 40
1.199999103510116
 50
269.99995719571307
 51
0.0000428042870276
  0
LINE
  8
_0-1_
  6
CONTINUOUS
 62
    7
 10
147.6500000000002
 20
858.66192893401012
 11
147.6500000000002
 21
862.2619289340098
  0
LINE
  8
_0-1_
  6
CONTINUOUS
 62
    7
 10
147.6500000000002
 20
862.2619289340098
 11
146.85000000000013
 21
862.2619289340098
  0
LINE
  8
_0-1_
  6
CONTINUOUS
 62
    7
 10
146.85000000000013
 20
862.2619289340098
 11
146.85000000000013
 21
858.66192893401012
  0
ARC
  8
_0-1_
  6
CONTINUOUS
 62
    7
 10
146.45000029883021
 20
858.66192863517994
 40
0.399999701170042
 50
269.99995719571325
 51
0.0000428042872312
  0
LINE
  8
_0-1_
  6
CONTINUOUS
 62
    7
 10
146.45000000000004
 20
858.26192893400991
 11
135.25000000000022
 21
858.26192893400991
  0
LINE
  8
_0-1_
  6
CONTINUOUS
 62
    7
 10
135.25000000000022
 20
858.26192893400991
 11
135.1500000000002
 21
858.26192893400991
  0
LINE
  8
_0-1_
  6
CONTINUOUS
 62
    7
 10
135.1500000000002
 20
858.26192893400991
 11
117.50000000000011
 21
858.26192893400991
  0
LINE
  8
_0-1_
  6
CONTINUOUS
 62
    7
 10
117.50000000000011
 20
858.26192893400991
 11
112.35000000000013
 21
858.26192893400991
  0
LINE
  8
_0-1_
  6
CONTINUOUS
 62
    7
 10
112.35000000000013
 20
858.26192893400991
 11
112.35000000000013
 21
857.46192893401018
  0
LINE
  8
_0-1_
  6
CONTINUOUS
 62
    7
 10
112.35000000000013
 20
857.46192893401018
 11
117.50000000000011
 21
857.46192893401018
  0
LINE
  8
_0-1_
  6
CONTINUOUS
 62
    7
 10
117.50000000000011
 20
857.46192893401018
 11
135.1500000000002
 21
857.46192893401018
  0
LINE
  8
_0-1_
  6
CONTINUOUS
 62
    7
 10
135.1500000000002
 20
857.46192893401018
 11
135.25000000000022
 21
857.46192893401018
  0
LINE
  8
_0-1_
  6
CONTINUOUS
 62
    7
 10
135.25000000000022
 20
857.46192893401018
 11
146.45000000000004
 21
857.46192893401018
  0
LINE
  8
_0-0_
  6
CONTINUOUS
 62
    7
 10
30
 20
1157.4619289340103
 11
230
 21
1157.4619289340103
  0
LINE
  8
_0-0_
  6
CONTINUOUS
 62
    7
 10
230
 20
1157.4619289340103
 11
230
 21
957.46192893401018
  0
LINE
  8
_0-0_
  6
CONTINUOUS
 62
    7
 10
230
 20
957.46192893401018
 11
30
 21
957.46192893401018
  0
LINE
  8
_0-0_
  6
CONTINUOUS
 62
    7
 10
30
 20
957.46192893401018
 11
30
 21
1157.4619289340103
  0
LINE
  8
_0-0_
  6
CONTINUOUS
 62
    7
 10
230
 20
957.46192893401018
 11
230
 21
757.46192893401018
  0
LINE
  8
_0-0_
  6
CONTINUOUS
 62
    7
 10
230
 20
757.46192893401018
 11
30
 21
757.46192893401018
  0
LINE
  8
_0-0_
  6
CONTINUOUS
 62
    7
 10
30
 20
757.46192893401018
 11
30
 21
957.46192893401018
  0
LINE
  8
_0-0_
  6
CONTINUOUS
 62
    7
 10
30
 20
757.46192893401018
 11
230
 21
757.46192893401018
  0
LINE
  8
_0-0_
  6
CONTINUOUS
 62
    7
 10
230
 20
757.46192893401018
 11
230
 21
557.46192893401018
  0
LINE
  8
_0-0_
  6
CONTINUOUS
 62
    7
 10
230
 20
557.46192893401018
 11
30
 21
557.46192893401018
  0
LINE
  8
_0-0_
  6
CONTINUOUS
 62
    7
 10
30
 20
557.46192893401018
 11
30
 21
757.46192893401018
  0
LINE
  8
_0-0_
  6
CONTINUOUS
 62
    7
 10
30
 20
557.46192893401018
 11
230
 21
557.46192893401018
  0
LINE
  8
_0-0_
  6
CONTINUOUS
 62
    7
 10
230
 20
557.46192893401018
 11
230
 21
357.46192893401018
  0
LINE
  8
_0-0_
  6
CONTINUOUS
 62
    7
 10
230
 20
357.46192893401018
 11
30
 21
357.46192893401018
  0
LINE
  8
_0-0_
  6
CONTINUOUS
 62
    7
 10
30
 20
357.46192893401018
 11
30
 21
557.46192893401018
  0
TEXT
  8
_0-0_
 62
    7
 10
30
 20
757.46192893401018
 40
10
 41
1
 50
0
  1
999-00471
  0
TEXT
  8
_0-0_
 62
    7
 10
30
 20
557.46192893401018
 40
10
 41
1
 50
0
  1
999-00450
  0
TEXT
  8
_0-0_
 62
    7
 10
130
 20
557.46192893401018
 40
10
 41
1
 50
0
  1
999-03034
  0
TEXT
  8
_0-0_
 62
    7
 10
1398
 20
3.4619289340101886
 40
16
 41
1
 50
0
  1
www.999shimano.com
  0
LINE
  8
_0-0_
  6
CONTINUOUS
 62
    7
 10
0
 20
1187.4619289340103
 11
1680
 21
1187.4619289340103
  0
LINE
  8
_0-0_
  6
CONTINUOUS
 62
    7
 10
1680
 20
1187.4619289340103
 11
1680
 21
3.4619289340101886
  0
LINE
  8
_0-0_
  6
CONTINUOUS
 62
    7
 10
1680
 20
3.4619289340101886
 11
0
 21
3.4619289340101886
  0
LINE
  8
_0-0_
  6
CONTINUOUS
 62
    7
 10
0
 20
3.4619289340101886
 11
0
 21
1187.4619289340103
  0
TEXT
  8
_0-0_
 62
    7
 10
30
 20
3.4619289340101886
 40
16
 41
1
 50
0
  1
A-3 S=1/4
  0
LINE
  8
_0-f_
  6
CONTINUOUS
 62
    7
 10
1600
 20
283.46192893400927
 11
1620
 21
283.46192893400927
  0
LINE
  8
_0-f_
  6
CONTINUOUS
 62
    7
 10
1620
 20
283.46192893400927
 11
1620
 21
303.46192893400916
  0
LINE
  8
_0-f_
  6
CONTINUOUS
 62
    7
 10
1620
 20
303.46192893400916
 11
1600
 21
303.46192893400916
  0
LINE
  8
_0-f_
  6
CONTINUOUS
 62
    7
 10
1600
 20
303.46192893400916
 11
1600
 21
283.46192893400927
  0
LINE
  8
_0-f_
  6
CONTINUOUS
 62
    7
 10
1490
 20
283.46192893400939
 11
1470
 21
283.46192893400939
  0
LINE
  8
_0-f_
  6
CONTINUOUS
 62
    7
 10
1470
 20
283.46192893400939
 11
1470
 21
303.46192893400939
  0
LINE
  8
_0-f_
  6
CONTINUOUS
 62
    7
 10
1470
 20
303.46192893400939
 11
1490
 21
303.46192893400939
  0
LINE
  8
_0-f_
  6
CONTINUOUS
 62
    7
 10
1490
 20
303.46192893400939
 11
1490
 21
283.46192893400939
  0
POINT
  8
_0-f_
 62
    7
 10
1489.999999999999
 20
258.46192893400916
  0
POINT
  8
_0-f_
 62
    7
 10
1600.000000000002
 20
258.46192893400916
  0
LINE
  8
_0-f_
  6
CONTINUOUS
 62
    7
 10
1600.000000000002
 20
258.46192893400916
 11
1610.0000000000009
 21
258.46192893400916
  0
LINE
  8
_0-f_
  6
CONTINUOUS
 62
    7
 10
1610.0000000000009
 20
258.46192893400916
 11
1610.0000000000009
 21
248.46192893400916
  0
LINE
  8
_0-f_
  6
CONTINUOUS
 62
    7
 10
1610.0000000000009
 20
248.46192893400916
 11
1600.000000000002
 21
248.46192893400916
  0
LINE
  8
_0-f_
  6
CONTINUOUS
 62
    7
 10
1600.000000000002
 20
248.46192893400916
 11
1600.000000000002
 21
258.46192893400916
  0
LINE
  8
_0-f_
  6
CONTINUOUS
 62
    7
 10
1489.999999999999
 20
258.46192893400916
 11
1479.999999999999
 21
258.46192893400916
  0
LINE
  8
_0-f_
  6
CONTINUOUS
 62
    7
 10
1479.999999999999
 20
258.46192893400916
 11
1479.999999999999
 21
248.46192893400916
  0
LINE
  8
_0-f_
  6
CONTINUOUS
 62
    7
 10
1479.999999999999
 20
248.46192893400916
 11
1489.999999999999
 21
248.46192893400916
  0
LINE
  8
_0-f_
  6
CONTINUOUS
 62
    7
 10
1489.999999999999
 20
248.46192893400916
 11
1489.999999999999
 21
258.46192893400916
  0
LINE
  8
_0-f_
  6
CONTINUOUS
 62
    7
 10
1489.999999999999
 20
258.46192893400916
 11
1469.999999999999
 21
258.46192893400916
  0
LINE
  8
_0-f_
  6
CONTINUOUS
 62
    7
 10
1469.999999999999
 20
258.46192893400916
 11
1469.999999999999
 21
238.46192893400916
  0
LINE
  8
_0-f_
  6
CONTINUOUS
 62
    7
 10
1469.999999999999
 20
238.46192893400916
 11
1489.999999999999
 21
238.46192893400916
  0
LINE
  8
_0-f_
  6
CONTINUOUS
 62
    7
 10
1489.999999999999
 20
238.46192893400916
 11
1489.999999999999
 21
258.46192893400916
  0
LINE
  8
_0-f_
  6
CONTINUOUS
 62
    7
 10
1600.000000000002
 20
258.46192893400916
 11
1620.000000000002
 21
258.46192893400916
  0
LINE
  8
_0-f_
  6
CONTINUOUS
 62
    7
 10
1620.000000000002
 20
258.46192893400916
 11
1620.000000000002
 21
238.46192893400916
  0
LINE
  8
_0-f_
  6
CONTINUOUS
 62
    7
 10
1620.000000000002
 20
238.46192893400916
 11
1600.000000000002
 21
238.46192893400916
  0
LINE
  8
_0-f_
  6
CONTINUOUS
 62
    7
 10
1600.000000000002
 20
238.46192893400916
 11
1600.000000000002
 21
258.46192893400916
  0
LINE
  8
_0-f_
  6
CONTINUOUS
 62
    7
 10
1489.999999999999
 20
258.46192893400916
 11
1479.999999999999
 21
258.46192893400916
  0
LINE
  8
_0-f_
  6
CONTINUOUS
 62
    7
 10
1479.999999999999
 20
258.46192893400916
 11
1479.999999999999
 21
268.46192893400927
  0
LINE
  8
_0-f_
  6
CONTINUOUS
 62
    7
 10
1479.999999999999
 20
268.46192893400927
 11
1489.999999999999
 21
268.46192893400927
  0
LINE
  8
_0-f_
  6
CONTINUOUS
 62
    7
 10
1489.999999999999
 20
268.46192893400927
 11
1489.999999999999
 21
258.46192893400916
  0
LINE
  8
_0-f_
  6
CONTINUOUS
 62
    7
 10
1600.000000000002
 20
258.46192893400916
 11
1610.0000000000009
 21
258.46192893400916
  0
LINE
  8
_0-f_
  6
CONTINUOUS
 62
    7
 10
1610.0000000000009
 20
258.46192893400916
 11
1610.0000000000009
 21
268.46192893400927
  0
LINE
  8
_0-f_
  6
CONTINUOUS
 62
    7
 10
1610.0000000000009
 20
268.46192893400927
 11
1600.000000000002
 21
268.46192893400927
  0
LINE
  8
_0-f_
  6
CONTINUOUS
 62
    7
 10
1600.000000000002
 20
268.46192893400927
 11
1600.000000000002
 21
258.46192893400916
  0
LINE
  8
_0-f_
  6
CONTINUOUS
 62
    7
 10
1490
 20
283.46192893400939
 11
1500
 21
283.46192893400939
  0
LINE
  8
_0-f_
  6
CONTINUOUS
 62
    7
 10
1500
 20
283.46192893400939
 11
1500
 21
293.46192893400939
  0
LINE
  8
_0-f_
  6
CONTINUOUS
 62
    7
 10
1500
 20
293.46192893400939
 11
1490
 21
293.46192893400939
  0
LINE
  8
_0-f_
  6
CONTINUOUS
 62
    7
 10
1490
 20
293.46192893400939
 11
1490
 21
283.46192893400939
  0
LINE
  8
_0-f_
  6
CONTINUOUS
 62
    7
 10
1500
 20
283.46192893400939
 11
1510
 21
283.46192893400939
  0
LINE
  8
_0-f_
  6
CONTINUOUS
 62
    7
 10
1510
 20
283.46192893400939
 11
1510
 21
293.46192893400939
  0
LINE
  8
_0-f_
  6
CONTINUOUS
 62
    7
 10
1510
 20
293.46192893400939
 11
1500
 21
293.46192893400939
  0
LINE
  8
_0-f_
  6
CONTINUOUS
 62
    7
 10
1500
 20
293.46192893400939
 11
1500
 21
283.46192893400939
  0
LINE
  8
_0-f_
  6
CONTINUOUS
 62
    7
 10
1600
 20
283.46192893400927
 11
1610
 21
283.46192893400927
  0
LINE
  8
_0-f_
  6
CONTINUOUS
 62
    7
 10
1610
 20
283.46192893400927
 11
1610
 21
293.46192893400927
  0
LINE
  8
_0-f_
  6
CONTINUOUS
 62
    7
 10
1610
 20
293.46192893400927
 11
1600
 21
293.46192893400927
  0
LINE
  8
_0-f_
  6
CONTINUOUS
 62
    7
 10
1600
 20
293.46192893400927
 11
1600
 21
283.46192893400927
  0
LINE
  8
_0-f_
  6
CONTINUOUS
 62
    7
 10
1600
 20
917.46192893401018
 11
1610
 21
917.46192893401018
  0
LINE
  8
_0-f_
  6
CONTINUOUS
 62
    7
 10
1610
 20
917.46192893401018
 11
1610
 21
907.46192893401018
  0
LINE
  8
_0-f_
  6
CONTINUOUS
 62
    7
 10
1610
 20
907.46192893401018
 11
1600
 21
907.46192893401018
  0
LINE
  8
_0-f_
  6
CONTINUOUS
 62
    7
 10
1600
 20
907.46192893401018
 11
1600
 21
917.46192893401018
  0
LINE
  8
_0-f_
  6
CONTINUOUS
 62
    7
 10
1490
 20
917.46192893400973
 11
1480
 21
917.46192893400973
  0
LINE
  8
_0-f_
  6
CONTINUOUS
 62
    7
 10
1480
 20
917.46192893400973
 11
1480
 21
907.46192893400973
  0
LINE
  8
_0-f_
  6
CONTINUOUS
 62
    7
 10
1480
 20
907.46192893400973
 11
1490
 21
907.46192893400973
  0
LINE
  8
_0-f_
  6
CONTINUOUS
 62
    7
 10
1490
 20
907.46192893400973
 11
1490
 21
917.46192893400973
  0
LINE
  8
_0-f_
  6
CONTINUOUS
 62
    7
 10
1600
 20
917.46192893401018
 11
1600
 21
950.00774358303976
  0
LINE
  8
_0-f_
  6
CONTINUOUS
 62
    7
 10
1598.4
 20
942.46192893401018
 11
1603.6521280051979
 21
942.46192893401018
  0
LINE
  8
_0-f_
  6
CONTINUOUS
 62
    7
 10
1490
 20
942.4619289340095
 11
1470
 21
942.4619289340095
  0
LINE
  8
_0-f_
  6
CONTINUOUS
 62
    7
 10
1470
 20
942.4619289340095
 11
1470
 21
962.46192893400939
  0
LINE
  8
_0-f_
  6
CONTINUOUS
 62
    7
 10
1470
 20
962.46192893400939
 11
1490
 21
962.46192893400939
  0
LINE
  8
_0-f_
  6
CONTINUOUS
 62
    7
 10
1490
 20
962.46192893400939
 11
1490
 21
942.4619289340095
  0
LINE
  8
_0-f_
  6
CONTINUOUS
 62
    7
 10
1600
 20
942.46192893401018
 11
1620
 21
942.46192893401018
  0
LINE
  8
_0-f_
  6
CONTINUOUS
 62
    7
 10
1620
 20
942.46192893401018
 11
1620
 21
962.46192893401018
  0
LINE
  8
_0-f_
  6
CONTINUOUS
 62
    7
 10
1620
 20
962.46192893401018
 11
1600
 21
962.46192893401018
  0
LINE
  8
_0-f_
  6
CONTINUOUS
 62
    7
 10
1600
 20
962.46192893401018
 11
1600
 21
942.46192893401018
  0
LINE
  8
_0-f_
  6
CONTINUOUS
 62
    7
 10
1600
 20
942.46192893401018
 11
1610
 21
942.46192893401018
  0
LINE
  8
_0-f_
  6
CONTINUOUS
 62
    7
 10
1610
 20
942.46192893401018
 11
1610
 21
952.46192893401018
  0
LINE
  8
_0-f_
  6
CONTINUOUS
 62
    7
 10
1610
 20
952.46192893401018
 11
1600
 21
952.46192893401018
  0
LINE
  8
_0-f_
  6
CONTINUOUS
 62
    7
 10
1600
 20
952.46192893401018
 11
1600
 21
942.46192893401018
  0
LINE
  8
_0-f_
  6
CONTINUOUS
 62
    7
 10
1490
 20
942.4619289340095
 11
1480
 21
942.4619289340095
  0
LINE
  8
_0-f_
  6
CONTINUOUS
 62
    7
 10
1480
 20
942.4619289340095
 11
1480
 21
952.46192893400939
  0
LINE
  8
_0-f_
  6
CONTINUOUS
 62
    7
 10
1480
 20
952.46192893400939
 11
1490
 21
952.46192893400939
  0
LINE
  8
_0-f_
  6
CONTINUOUS
 62
    7
 10
1490
 20
952.46192893400939
 11
1490
 21
942.4619289340095
  0
LINE
  8
_0-f_
  6
CONTINUOUS
 62
    7
 10
1600
 20
917.46192893401018
 11
1620
 21
917.46192893401018
  0
LINE
  8
_0-f_
  6
CONTINUOUS
 62
    7
 10
1620
 20
917.46192893401018
 11
1620
 21
897.46192893401018
  0
LINE
  8
_0-f_
  6
CONTINUOUS
 62
    7
 10
1620
 20
897.46192893401018
 11
1600
 21
897.46192893401018
  0
LINE
  8
_0-f_
  6
CONTINUOUS
 62
    7
 10
1600
 20
897.46192893401018
 11
1600
 21
917.46192893401018
  0
LINE
  8
_0-f_
  6
CONTINUOUS
 62
    7
 10
1490
 20
917.46192893400973
 11
1470
 21
917.46192893400973
  0
LINE
  8
_0-f_
  6
CONTINUOUS
 62
    7
 10
1470
 20
917.46192893400973
 11
1470
 21
897.46192893400984
  0
LINE
  8
_0-f_
  6
CONTINUOUS
 62
    7
 10
1470
 20
897.46192893400984
 11
1490
 21
897.46192893400984
  0
LINE
  8
_0-f_
  6
CONTINUOUS
 62
    7
 10
1490
 20
897.46192893400984
 11
1490
 21
917.46192893400973
  0
LINE
  8
_0-f_
  6
CONTINUOUS
 62
    7
 10
1214.1666666666669
 20
283.46192893400939
 11
300
 21
283.46192893400939
  0
LINE
  8
_0-f_
  6
CONTINUOUS
 62
    7
 10
1400
 20
283.46192893400939
 11
1219.1666666666669
 21
283.46192893400939
  0
LINE
  8
_0-f_
  6
CONTINUOUS
 62
    7
 10
1214.1666666666669
 20
258.46192893400939
 11
275
 21
258.46192893400939
  0
LINE
  8
_0-f_
  6
CONTINUOUS
 62
    7
 10
1425
 20
258.46192893400939
 11
1219.1666666666669
 21
258.46192893400939
  0
LINE
  8
_0-f_
  6
CONTINUOUS
 62
    7
 10
1219.1666666666669
 20
253.46192893400939
 11
1430
 21
253.46192893400939
  0
LINE
  8
_0-f_
  6
CONTINUOUS
 62
    7
 10
270
 20
253.46192893400939
 11
1214.1666666666669
 21
253.46192893400939
  0
LINE
  8
_0-f_
  6
CONTINUOUS
 62
    7
 10
1219.1666666666669
 20
942.46192893400973
 11
1425
 21
942.46192893400973
  0
LINE
  8
_0-f_
  6
CONTINUOUS
 62
    7
 10
1430
 20
947.46192893400984
 11
1219.1666666666669
 21
947.46192893400984
  0
LINE
  8
_0-f_
  6
CONTINUOUS
 62
    7
 10
1219.1666666666669
 20
917.46192893400973
 11
1400
 21
917.46192893400973
  0
LINE
  8
_0-f_
  6
CONTINUOUS
 62
    7
 10
1214.1666666666669
 20
947.46192893400984
 11
852.5
 21
947.46192893400984
  0
LINE
  8
_0-f_
  6
CONTINUOUS
 62
    7
 10
275
 20
942.46192893400973
 11
847.49999999999988
 21
942.46192893400973
  0
LINE
  8
_0-f_
  6
CONTINUOUS
 62
    7
 10
852.5
 20
942.46192893400973
 11
1214.1666666666669
 21
942.46192893400973
  0
LINE
  8
_0-f_
  6
CONTINUOUS
 62
    7
 10
300
 20
917.46192893400973
 11
847.49999999999988
 21
917.46192893400973
  0
LINE
  8
_0-f_
  6
CONTINUOUS
 62
    7
 10
852.5
 20
917.46192893400973
 11
1214.1666666666669
 21
917.46192893400973
  0
LINE
  8
_0-f_
  6
CONTINUOUS
 62
    7
 10
1127.5
 20
33.461928934010188
 11
1680
 21
33.461928934010188
  0
LINE
  8
_0-f_
  6
CONTINUOUS
 62
    7
 10
852.5
 20
33.461928934010188
 11
1122.5
 21
33.461928934010188
  0
LINE
  8
_0-f_
  6
CONTINUOUS
 62
    7
 10
0
 20
33.461928934010188
 11
480.83333333333308
 21
33.461928934010188
  0
LINE
  8
_0-f_
  6
CONTINUOUS
 62
    7
 10
485.8333333333332
 20
33.461928934010188
 11
847.49999999999988
 21
33.461928934010188
  0
LINE
  8
_0-f_
  6
CONTINUOUS
 62
    7
 10
480.83333333333308
 20
957.46192893401018
 11
430
 21
957.46192893401018
  0
LINE
  8
_0-f_
  6
CONTINUOUS
 62
    7
 10
630
 20
957.46192893401018
 11
485.8333333333332
 21
957.46192893401018
  0
LINE
  8
_0-f_
  6
CONTINUOUS
 62
    7
 10
480.83333333333308
 20
947.46192893400984
 11
275
 21
947.46192893400984
  0
LINE
  8
_0-f_
  6
CONTINUOUS
 62
    7
 10
847.49999999999988
 20
947.46192893400984
 11
485.8333333333332
 21
947.46192893400984
  0
LINE
  8
_0-f_
  6
CONTINUOUS
 62
    7
 10
130
 20
1057.4619289340103
 11
180
 21
1057.4619289340103
  0
LINE
  8
_0-f_
  6
CONTINUOUS
 62
    7
 10
180
 20
1057.4619289340103
 11
180
 21
1007.4619289340101
  0
LINE
  8
_0-f_
  6
CONTINUOUS
 62
    7
 10
180
 20
1007.4619289340101
 11
130
 21
1007.4619289340101
  0
LINE
  8
_0-f_
  6
CONTINUOUS
 62
    7
 10
130
 20
1007.4619289340101
 11
130
 21
1057.4619289340103
  0
LINE
  8
_0-f_
  6
CONTINUOUS
 62
    7
 10
130
 20
1057.4619289340103
 11
180
 21
1057.4619289340103
  0
LINE
  8
_0-f_
  6
CONTINUOUS
 62
    7
 10
180
 20
1057.4619289340103
 11
180
 21
1107.4619289340103
  0
LINE
  8
_0-f_
  6
CONTINUOUS
 62
    7
 10
180
 20
1107.4619289340103
 11
130
 21
1107.4619289340103
  0
LINE
  8
_0-f_
  6
CONTINUOUS
 62
    7
 10
130
 20
1107.4619289340103
 11
130
 21
1057.4619289340103
  0
LINE
  8
_0-f_
  6
CONTINUOUS
 62
    7
 10
130
 20
1057.4619289340103
 11
80
 21
1057.4619289340103
  0
LINE
  8
_0-f_
  6
CONTINUOUS
 62
    7
 10
80
 20
1057.4619289340103
 11
80
 21
1107.4619289340103
  0
LINE
  8
_0-f_
  6
CONTINUOUS
 62
    7
 10
80
 20
1107.4619289340103
 11
130
 21
1107.4619289340103
  0
LINE
  8
_0-f_
  6
CONTINUOUS
 62
    7
 10
130
 20
1107.4619289340103
 11
130
 21
1057.4619289340103
  0
LINE
  8
_0-f_
  6
CONTINUOUS
 62
    7
 10
130
 20
1057.4619289340103
 11
80
 21
1057.4619289340103
  0
LINE
  8
_0-f_
  6
CONTINUOUS
 62
    7
 10
80
 20
1057.4619289340103
 11
80
 21
1007.4619289340101
  0
LINE
  8
_0-f_
  6
CONTINUOUS
 62
    7
 10
80
 20
1007.4619289340101
 11
130
 21
1007.4619289340101
  0
LINE
  8
_0-f_
  6
CONTINUOUS
 62
    7
 10
130
 20
1007.4619289340101
 11
130
 21
1057.4619289340103
  0
LINE
  8
_0-f_
  6
CONTINUOUS
 62
    7
 10
130
 20
857.46192893401018
 11
180
 21
857.46192893401018
  0
LINE
  8
_0-f_
  6
CONTINUOUS
 62
    7
 10
180
 20
857.46192893401018
 11
180
 21
907.46192893401018
  0
LINE
  8
_0-f_
  6
CONTINUOUS
 62
    7
 10
180
 20
907.46192893401018
 11
130
 21
907.46192893401018
  0
LINE
  8
_0-f_
  6
CONTINUOUS
 62
    7
 10
130
 20
907.46192893401018
 11
130
 21
857.46192893401018
  0
LINE
  8
_0-f_
  6
CONTINUOUS
 62
    7
 10
130
 20
857.46192893401018
 11
180
 21
857.46192893401018
  0
LINE
  8
_0-f_
  6
CONTINUOUS
 62
    7
 10
180
 20
857.46192893401018
 11
180
 21
807.46192893401018
  0
LINE
  8
_0-f_
  6
CONTINUOUS
 62
    7
 10
180
 20
807.46192893401018
 11
130
 21
807.46192893401018
  0
LINE
  8
_0-f_
  6
CONTINUOUS
 62
    7
 10
130
 20
807.46192893401018
 11
130
 21
857.46192893401018
  0
LINE
  8
_0-f_
  6
CONTINUOUS
 62
    7
 10
130
 20
857.46192893401018
 11
80
 21
857.46192893401018
  0
LINE
  8
_0-f_
  6
CONTINUOUS
 62
    7
 10
80
 20
857.46192893401018
 11
80
 21
807.46192893401018
  0
LINE
  8
_0-f_
  6
CONTINUOUS
 62
    7
 10
80
 20
807.46192893401018
 11
130
 21
807.46192893401018
  0
LINE
  8
_0-f_
  6
CONTINUOUS
 62
    7
 10
130
 20
807.46192893401018
 11
130
 21
857.46192893401018
  0
LINE
  8
_0-f_
  6
CONTINUOUS
 62
    7
 10
130
 20
857.46192893401018
 11
80
 21
857.46192893401018
  0
LINE
  8
_0-f_
  6
CONTINUOUS
 62
    7
 10
80
 20
857.46192893401018
 11
80
 21
907.46192893401018
  0
LINE
  8
_0-f_
  6
CONTINUOUS
 62
    7
 10
80
 20
907.46192893401018
 11
130
 21
907.46192893401018
  0
LINE
  8
_0-f_
  6
CONTINUOUS
 62
    7
 10
130
 20
907.46192893401018
 11
130
 21
857.46192893401018
  0
LINE
  8
_0-f_
  6
CONTINUOUS
 62
    7
 10
130
 20
857.46192893401018
 11
160
 21
857.46192893401018
  0
LINE
  8
_0-f_
  6
CONTINUOUS
 62
    7
 10
160
 20
857.46192893401018
 11
160
 21
887.46192893401018
  0
LINE
  8
_0-f_
  6
CONTINUOUS
 62
    7
 10
160
 20
887.46192893401018
 11
130
 21
887.46192893401018
  0
LINE
  8
_0-f_
  6
CONTINUOUS
 62
    7
 10
130
 20
887.46192893401018
 11
130
 21
857.46192893401018
  0
LINE
  8
_0-f_
  6
CONTINUOUS
 62
    7
 10
130
 20
857.46192893401018
 11
160
 21
857.46192893401018
  0
LINE
  8
_0-f_
  6
CONTINUOUS
 62
    7
 10
160
 20
857.46192893401018
 11
160
 21
827.46192893401018
  0
LINE
  8
_0-f_
  6
CONTINUOUS
 62
    7
 10
160
 20
827.46192893401018
 11
130
 21
827.46192893401018
  0
LINE
  8
_0-f_
  6
CONTINUOUS
 62
    7
 10
130
 20
827.46192893401018
 11
130
 21
857.46192893401018
  0
LINE
  8
_0-f_
  6
CONTINUOUS
 62
    7
 10
130
 20
857.46192893401018
 11
100
 21
857.46192893401018
  0
LINE
  8
_0-f_
  6
CONTINUOUS
 62
    7
 10
100
 20
857.46192893401018
 11
100
 21
827.46192893401018
  0
LINE
  8
_0-f_
  6
CONTINUOUS
 62
    7
 10
100
 20
827.46192893401018
 11
130
 21
827.46192893401018
  0
LINE
  8
_0-f_
  6
CONTINUOUS
 62
    7
 10
130
 20
827.46192893401018
 11
130
 21
857.46192893401018
  0
LINE
  8
_0-f_
  6
CONTINUOUS
 62
    7
 10
130
 20
857.46192893401018
 11
100
 21
857.46192893401018
  0
LINE
  8
_0-f_
  6
CONTINUOUS
 62
    7
 10
100
 20
857.46192893401018
 11
100
 21
887.46192893401018
  0
LINE
  8
_0-f_
  6
CONTINUOUS
 62
    7
 10
100
 20
887.46192893401018
 11
130
 21
887.46192893401018
  0
LINE
  8
_0-f_
  6
CONTINUOUS
 62
    7
 10
130
 20
887.46192893401018
 11
130
 21
857.46192893401018
  0
LINE
  8
_0-f_
  6
CONTINUOUS
 62
    7
 10
130
 20
1057.4619289340103
 11
160
 21
1057.4619289340103
  0
LINE
  8
_0-f_
  6
CONTINUOUS
 62
    7
 10
160
 20
1057.4619289340103
 11
160
 21
1087.4619289340103
  0
LINE
  8
_0-f_
  6
CONTINUOUS
 62
    7
 10
160
 20
1087.4619289340103
 11
130
 21
1087.4619289340103
  0
LINE
  8
_0-f_
  6
CONTINUOUS
 62
    7
 10
130
 20
1087.4619289340103
 11
130
 21
1057.4619289340103
  0
LINE
  8
_0-f_
  6
CONTINUOUS
 62
    7
 10
130
 20
1057.4619289340103
 11
160
 21
1057.4619289340103
  0
LINE
  8
_0-f_
  6
CONTINUOUS
 62
    7
 10
160
 20
1057.4619289340103
 11
160
 21
1027.4619289340103
  0
LINE
  8
_0-f_
  6
CONTINUOUS
 62
    7
 10
160
 20
1027.4619289340103
 11
130
 21
1027.4619289340103
  0
LINE
  8
_0-f_
  6
CONTINUOUS
 62
    7
 10
130
 20
1027.4619289340103
 11
130
 21
1057.4619289340103
  0
LINE
  8
_0-f_
  6
CONTINUOUS
 62
    7
 10
130
 20
1057.4619289340103
 11
100
 21
1057.4619289340103
  0
LINE
  8
_0-f_
  6
CONTINUOUS
 62
    7
 10
100
 20
1057.4619289340103
 11
100
 21
1027.4619289340103
  0
LINE
  8
_0-f_
  6
CONTINUOUS
 62
    7
 10
100
 20
1027.4619289340103
 11
130
 21
1027.4619289340103
  0
LINE
  8
_0-f_
  6
CONTINUOUS
 62
    7
 10
130
 20
1027.4619289340103
 11
130
 21
1057.4619289340103
  0
LINE
  8
_0-f_
  6
CONTINUOUS
 62
    7
 10
130
 20
1057.4619289340103
 11
100
 21
1057.4619289340103
  0
LINE
  8
_0-f_
  6
CONTINUOUS
 62
    7
 10
100
 20
1057.4619289340103
 11
100
 21
1087.4619289340103
  0
LINE
  8
_0-f_
  6
CONTINUOUS
 62
    7
 10
100
 20
1087.4619289340103
 11
130
 21
1087.4619289340103
  0
LINE
  8
_0-f_
  6
CONTINUOUS
 62
    7
 10
130
 20
1087.4619289340103
 11
130
 21
1057.4619289340103
  0
LINE
  8
_0-f_
  6
CONTINUOUS
 62
    7
 10
130
 20
657.46192893401018
 11
160
 21
657.46192893401018
  0
LINE
  8
_0-f_
  6
CONTINUOUS
 62
    7
 10
160
 20
657.46192893401018
 11
160
 21
687.46192893401018
  0
LINE
  8
_0-f_
  6
CONTINUOUS
 62
    7
 10
160
 20
687.46192893401018
 11
130
 21
687.46192893401018
  0
LINE
  8
_0-f_
  6
CONTINUOUS
 62
    7
 10
130
 20
687.46192893401018
 11
130
 21
657.46192893401018
  0
LINE
  8
_0-f_
  6
CONTINUOUS
 62
    7
 10
130
 20
657.46192893401018
 11
100
 21
657.46192893401018
  0
LINE
  8
_0-f_
  6
CONTINUOUS
 62
    7
 10
100
 20
657.46192893401018
 11
100
 21
687.46192893401018
  0
LINE
  8
_0-f_
  6
CONTINUOUS
 62
    7
 10
100
 20
687.46192893401018
 11
130
 21
687.46192893401018
  0
LINE
  8
_0-f_
  6
CONTINUOUS
 62
    7
 10
130
 20
687.46192893401018
 11
130
 21
657.46192893401018
  0
LINE
  8
_0-f_
  6
CONTINUOUS
 62
    7
 10
130
 20
657.46192893401018
 11
100
 21
657.46192893401018
  0
LINE
  8
_0-f_
  6
CONTINUOUS
 62
    7
 10
100
 20
657.46192893401018
 11
100
 21
627.46192893401018
  0
LINE
  8
_0-f_
  6
CONTINUOUS
 62
    7
 10
100
 20
627.46192893401018
 11
130
 21
627.46192893401018
  0
LINE
  8
_0-f_
  6
CONTINUOUS
 62
    7
 10
130
 20
627.46192893401018
 11
130
 21
657.46192893401018
  0
LINE
  8
_0-f_
  6
CONTINUOUS
 62
    7
 10
130
 20
657.46192893401018
 11
160
 21
657.46192893401018
  0
LINE
  8
_0-f_
  6
CONTINUOUS
 62
    7
 10
160
 20
657.46192893401018
 11
160
 21
627.46192893401018
  0
LINE
  8
_0-f_
  6
CONTINUOUS
 62
    7
 10
160
 20
627.46192893401018
 11
130
 21
627.46192893401018
  0
LINE
  8
_0-f_
  6
CONTINUOUS
 62
    7
 10
130
 20
627.46192893401018
 11
130
 21
657.46192893401018
  0
LINE
  8
_0-f_
  6
CONTINUOUS
 62
    7
 10
130
 20
657.46192893401018
 11
180
 21
657.46192893401018
  0
LINE
  8
_0-f_
  6
CONTINUOUS
 62
    7
 10
180
 20
707.46192893401018
 11
130
 21
707.46192893401018
  0
LINE
  8
_0-f_
  6
CONTINUOUS
 62
    7
 10
130
 20
707.46192893401018
 11
130
 21
657.46192893401018
  0
LINE
  8
_0-f_
  6
CONTINUOUS
 62
    7
 10
130
 20
657.46192893401018
 11
180
 21
657.46192893401018
  0
LINE
  8
_0-f_
  6
CONTINUOUS
 62
    7
 10
180
 20
657.46192893401018
 11
180
 21
607.46192893401018
  0
LINE
  8
_0-f_
  6
CONTINUOUS
 62
    7
 10
130
 20
607.46192893401018
 11
130
 21
657.46192893401018
  0
LINE
  8
_0-f_
  6
CONTINUOUS
 62
    7
 10
130
 20
657.46192893401018
 11
80
 21
657.46192893401018
  0
LINE
  8
_0-f_
  6
CONTINUOUS
 62
    7
 10
80
 20
657.46192893401018
 11
80
 21
707.46192893401018
  0
LINE
  8
_0-f_
  6
CONTINUOUS
 62
    7
 10
80
 20
707.46192893401018
 11
130
 21
707.46192893401018
  0
LINE
  8
_0-f_
  6
CONTINUOUS
 62
    7
 10
130
 20
707.46192893401018
 11
130
 21
657.46192893401018
  0
LINE
  8
_0-f_
  6
CONTINUOUS
 62
    7
 10
130
 20
657.46192893401018
 11
80
 21
657.46192893401018
  0
LINE
  8
_0-f_
  6
CONTINUOUS
 62
    7
 10
80
 20
657.46192893401018
 11
80
 21
607.46192893401018
  0
LINE
  8
_0-f_
  6
CONTINUOUS
 62
    7
 10
80
 20
607.46192893401018
 11
130
 21
607.46192893401018
  0
LINE
  8
_0-f_
  6
CONTINUOUS
 62
    7
 10
130
 20
607.46192893401018
 11
130
 21
657.46192893401018
  0
LINE
  8
_0-f_
  6
CONTINUOUS
 62
    7
 10
180
 20
657.46192893401018
 11
160
 21
657.46192893401018
  0
LINE
  8
_0-f_
  6
CONTINUOUS
 62
    7
 10
130
 20
657.46192893401018
 11
180
 21
657.46192893401018
  0
LINE
  8
_0-f_
  6
CONTINUOUS
 62
    7
 10
180
 20
657.46192893401018
 11
180
 21
707.46192893401018
  0
LINE
  8
_0-f_
  6
CONTINUOUS
 62
    7
 10
180
 20
707.46192893401018
 11
130
 21
707.46192893401018
  0
LINE
  8
_0-f_
  6
CONTINUOUS
 62
    7
 10
130
 20
707.46192893401018
 11
130
 21
657.46192893401018
  0
LINE
  8
_0-f_
  6
CONTINUOUS
 62
    7
 10
130
 20
657.46192893401018
 11
180
 21
657.46192893401018
  0
LINE
  8
_0-f_
  6
CONTINUOUS
 62
    7
 10
180
 20
657.46192893401018
 11
180
 21
607.46192893401018
  0
LINE
  8
_0-f_
  6
CONTINUOUS
 62
    7
 10
180
 20
607.46192893401018
 11
130
 21
607.46192893401018
  0
LINE
  8
_0-f_
  6
CONTINUOUS
 62
    7
 10
130
 20
607.46192893401018
 11
130
 21
657.46192893401018
  0
LINE
  8
_0-f_
  6
CONTINUOUS
 62
    7
 10
130
 20
457.46192893401018
 11
180
 21
457.46192893401018
  0
LINE
  8
_0-f_
  6
CONTINUOUS
 62
    7
 10
180
 20
457.46192893401018
 11
180
 21
407.46192893401018
  0
LINE
  8
_0-f_
  6
CONTINUOUS
 62
    7
 10
180
 20
407.46192893401018
 11
130
 21
407.46192893401018
  0
LINE
  8
_0-f_
  6
CONTINUOUS
 62
    7
 10
130
 20
407.46192893401018
 11
130
 21
457.46192893401018
  0
LINE
  8
_0-f_
  6
CONTINUOUS
 62
    7
 10
130
 20
457.46192893401018
 11
180
 21
457.46192893401018
  0
LINE
  8
_0-f_
  6
CONTINUOUS
 62
    7
 10
180
 20
457.46192893401018
 11
180
 21
507.46192893401018
  0
LINE
  8
_0-f_
  6
CONTINUOUS
 62
    7
 10
180
 20
507.46192893401018
 11
130
 21
507.46192893401018
  0
LINE
  8
_0-f_
  6
CONTINUOUS
 62
    7
 10
130
 20
507.46192893401018
 11
130
 21
457.46192893401018
  0
LINE
  8
_0-f_
  6
CONTINUOUS
 62
    7
 10
130
 20
457.46192893401018
 11
80
 21
457.46192893401018
  0
LINE
  8
_0-f_
  6
CONTINUOUS
 62
    7
 10
80
 20
457.46192893401018
 11
80
 21
507.46192893401018
  0
LINE
  8
_0-f_
  6
CONTINUOUS
 62
    7
 10
80
 20
507.46192893401018
 11
130
 21
507.46192893401018
  0
LINE
  8
_0-f_
  6
CONTINUOUS
 62
    7
 10
130
 20
507.46192893401018
 11
130
 21
457.46192893401018
  0
LINE
  8
_0-f_
  6
CONTINUOUS
 62
    7
 10
130
 20
457.46192893401018
 11
80
 21
457.46192893401018
  0
LINE
  8
_0-f_
  6
CONTINUOUS
 62
    7
 10
80
 20
457.46192893401018
 11
80
 21
407.46192893401018
  0
LINE
  8
_0-f_
  6
CONTINUOUS
 62
    7
 10
80
 20
407.46192893401018
 11
130
 21
407.46192893401018
  0
LINE
  8
_0-f_
  6
CONTINUOUS
 62
    7
 10
130
 20
407.46192893401018
 11
130
 21
457.46192893401018
  0
LINE
  8
_0-f_
  6
CONTINUOUS
 62
    7
 10
130
 20
457.46192893401018
 11
160
 21
457.46192893401018
  0
LINE
  8
_0-f_
  6
CONTINUOUS
 62
    7
 10
160
 20
457.46192893401018
 11
160
 21
487.46192893401018
  0
LINE
  8
_0-f_
  6
CONTINUOUS
 62
    7
 10
160
 20
487.46192893401018
 11
130
 21
487.46192893401018
  0
LINE
  8
_0-f_
  6
CONTINUOUS
 62
    7
 10
130
 20
487.46192893401018
 11
130
 21
457.46192893401018
  0
LINE
  8
_0-f_
  6
CONTINUOUS
 62
    7
 10
100
 20
457.46192893401018
 11
100
 21
487.46192893401018
  0
LINE
  8
_0-f_
  6
CONTINUOUS
 62
    7
 10
100
 20
487.46192893401018
 11
130
 21
487.46192893401018
  0
LINE
  8
_0-f_
  6
CONTINUOUS
 62
    7
 10
130
 20
487.46192893401018
 11
130
 21
457.46192893401018
  0
LINE
  8
_0-f_
  6
CONTINUOUS
 62
    7
 10
100
 20
457.46192893401018
 11
100
 21
427.46192893401018
  0
LINE
  8
_0-f_
  6
CONTINUOUS
 62
    7
 10
100
 20
427.46192893401018
 11
130
 21
427.46192893401018
  0
LINE
  8
_0-f_
  6
CONTINUOUS
 62
    7
 10
130
 20
427.46192893401018
 11
130
 21
457.46192893401018
  0
LINE
  8
_0-f_
  6
CONTINUOUS
 62
    7
 10
130
 20
457.46192893401018
 11
160
 21
457.46192893401018
  0
LINE
  8
_0-f_
  6
CONTINUOUS
 62
    7
 10
160
 20
457.46192893401018
 11
160
 21
427.46192893401018
  0
LINE
  8
_0-f_
  6
CONTINUOUS
 62
    7
 10
160
 20
427.46192893401018
 11
130
 21
427.46192893401018
  0
LINE
  8
_0-f_
  6
CONTINUOUS
 62
    7
 10
130
 20
427.46192893401018
 11
130
 21
457.46192893401018
  0
LINE
  8
_0-0_
  6
CONTINUOUS
 62
    7
 10
30
 20
1157.4619289340103
 11
1650
 21
1157.4619289340103
  0
LINE
  8
_0-0_
  6
CONTINUOUS
 62
    7
 10
1650
 20
33.461928934010188
 11
1650
 21
1157.4619289340103
  0
LINE
  8
_0-0_
  6
CONTINUOUS
 62
    7
 10
30
 20
33.461928934010188
 11
30
 21
1157.4619289340103
  0
LINE
  8
_0-0_
  6
CONTINUOUS
 62
    7
 10
30
 20
33.461928934010188
 11
1650
 21
33.461928934010188
  0
LINE
  8
_0-f_
  6
CONTINUOUS
 62
    7
 10
1545
 20
602.96192893400984
 11
1495
 21
602.96192893400984
  0
LINE
  8
_0-f_
  6
CONTINUOUS
 62
    7
 10
1495
 20
602.96192893400984
 11
1495
 21
652.96192893400984
  0
LINE
  8
_0-f_
  6
CONTINUOUS
 62
    7
 10
1495
 20
652.96192893400984
 11
1545
 21
652.96192893400984
  0
LINE
  8
_0-f_
  6
CONTINUOUS
 62
    7
 10
1545
 20
652.96192893400984
 11
1545
 21
602.96192893400984
  0
LINE
  8
_0-f_
  6
CONTINUOUS
 62
    7
 10
1495
 20
652.96192893400984
 11
1545
 21
652.96192893400984
  0
LINE
  8
_0-f_
  6
CONTINUOUS
 62
    7
 10
1545
 20
652.96192893400984
 11
1545
 21
702.96192893400984
  0
LINE
  8
_0-f_
  6
CONTINUOUS
 62
    7
 10
1545
 20
702.96192893400984
 11
1495
 21
702.96192893400984
  0
LINE
  8
_0-f_
  6
CONTINUOUS
 62
    7
 10
1495
 20
702.96192893400984
 11
1495
 21
652.96192893400984
  0
LINE
  8
_0-f_
  6
CONTINUOUS
 62
    7
 10
1495
 20
702.96192893400984
 11
1545
 21
702.96192893400984
  0
LINE
  8
_0-f_
  6
CONTINUOUS
 62
    7
 10
1545
 20
702.96192893400984
 11
1545
 21
752.96192893400973
  0
LINE
  8
_0-f_
  6
CONTINUOUS
 62
    7
 10
1545
 20
752.96192893400973
 11
1495
 21
752.96192893400973
  0
LINE
  8
_0-f_
  6
CONTINUOUS
 62
    7
 10
1495
 20
752.96192893400973
 11
1495
 21
702.96192893400984
  0
LINE
  8
_0-f_
  6
CONTINUOUS
 62
    7
 10
1545
 20
597.96192893400973
 11
1495
 21
597.96192893400973
  0
LINE
  8
_0-f_
  6
CONTINUOUS
 62
    7
 10
1495
 20
597.96192893400973
 11
1495
 21
547.96192893400973
  0
LINE
  8
_0-f_
  6
CONTINUOUS
 62
    7
 10
1495
 20
547.96192893400973
 11
1545
 21
547.96192893400973
  0
LINE
  8
_0-f_
  6
CONTINUOUS
 62
    7
 10
1545
 20
547.96192893400973
 11
1545
 21
597.96192893400973
  0
LINE
  8
_0-f_
  6
CONTINUOUS
 62
    7
 10
1545
 20
547.96192893400973
 11
1495
 21
547.96192893400973
  0
LINE
  8
_0-f_
  6
CONTINUOUS
 62
    7
 10
1495
 20
547.96192893400973
 11
1495
 21
497.96192893400967
  0
LINE
  8
_0-f_
  6
CONTINUOUS
 62
    7
 10
1495
 20
497.96192893400967
 11
1545
 21
497.96192893400967
  0
LINE
  8
_0-f_
  6
CONTINUOUS
 62
    7
 10
1545
 20
497.96192893400967
 11
1545
 21
547.96192893400973
  0
LINE
  8
_0-f_
  6
CONTINUOUS
 62
    7
 10
1545
 20
702.96192893400984
 11
1520
 21
702.96192893400984
  0
LINE
  8
_0-f_
  6
CONTINUOUS
 62
    7
 10
1520
 20
702.96192893400984
 11
1520
 21
727.96192893400973
  0
LINE
  8
_0-f_
  6
CONTINUOUS
 62
    7
 10
1520
 20
727.96192893400973
 11
1545
 21
727.96192893400973
  0
LINE
  8
_0-f_
  6
CONTINUOUS
 62
    7
 10
1545
 20
727.96192893400973
 11
1545
 21
702.96192893400984
  0
LINE
  8
_0-f_
  6
CONTINUOUS
 62
    7
 10
1545
 20
652.96192893400984
 11
1520
 21
652.96192893400984
  0
LINE
  8
_0-f_
  6
CONTINUOUS
 62
    7
 10
1520
 20
652.96192893400984
 11
1520
 21
677.96192893400984
  0
LINE
  8
_0-f_
  6
CONTINUOUS
 62
    7
 10
1520
 20
677.96192893400984
 11
1545
 21
677.96192893400984
  0
LINE
  8
_0-f_
  6
CONTINUOUS
 62
    7
 10
1545
 20
677.96192893400984
 11
1545
 21
652.96192893400984
  0
LINE
  8
_0-f_
  6
CONTINUOUS
 62
    7
 10
1545
 20
602.96192893400984
 11
1520
 21
602.96192893400984
  0
LINE
  8
_0-f_
  6
CONTINUOUS
 62
    7
 10
1520
 20
602.96192893400984
 11
1520
 21
627.96192893400984
  0
LINE
  8
_0-f_
  6
CONTINUOUS
 62
    7
 10
1520
 20
627.96192893400984
 11
1545
 21
627.96192893400984
  0
LINE
  8
_0-f_
  6
CONTINUOUS
 62
    7
 10
1545
 20
627.96192893400984
 11
1545
 21
602.96192893400984
  0
LINE
  8
_0-f_
  6
CONTINUOUS
 62
    7
 10
1545
 20
547.96192893400973
 11
1520
 21
547.96192893400973
  0
LINE
  8
_0-f_
  6
CONTINUOUS
 62
    7
 10
1520
 20
547.96192893400973
 11
1520
 21
572.96192893400973
  0
LINE
  8
_0-f_
  6
CONTINUOUS
 62
    7
 10
1520
 20
572.96192893400973
 11
1545
 21
572.96192893400973
  0
LINE
  8
_0-f_
  6
CONTINUOUS
 62
    7
 10
1545
 20
572.96192893400973
 11
1545
 21
547.96192893400973
  0
LINE
  8
_0-f_
  6
CONTINUOUS
 62
    7
 10
1545
 20
497.96192893400967
 11
1520
 21
497.96192893400967
  0
LINE
  8
_0-f_
  6
CONTINUOUS
 62
    7
 10
1520
 20
497.96192893400967
 11
1520
 21
522.96192893400973
  0
LINE
  8
_0-f_
  6
CONTINUOUS
 62
    7
 10
1520
 20
522.96192893400973
 11
1545
 21
522.96192893400973
  0
LINE
  8
_0-f_
  6
CONTINUOUS
 62
    7
 10
1545
 20
522.96192893400973
 11
1545
 21
497.96192893400967
  0
POINT
  8
_0-4_
 62
    7
 10
1530.9499999999989
 20
652.96192893400984
  0
POINT
  8
_0-4_
 62
    7
 10
1535.9499999999989
 20
652.96192893400984
  0
LINE
  8
_0-4_
  6
CONTINUOUS
 62
    7
 10
1530.9499999999989
 20
652.96192893400984
 11
1530.9499999999989
 21
627.96192893400984
  0
LINE
  8
_0-4_
  6
CONTINUOUS
 62
    7
 10
1535.9499999999989
 20
652.96192893400984
 11
1535.9499999999989
 21
627.96192893400984
  0
LINE
  8
_0-4_
  6
CONTINUOUS
 62
    7
 10
1530.9499999999989
 20
652.96192893400984
 11
1535.9499999999989
 21
652.96192893400984
  0
TEXT
  8
_0-4_
 62
    7
 10
1520.4499999999989
 20
652.96192893400984
 40
16
 41
1
 50
0
  1
5.0
  0
POINT
  8
_0-4_
 62
    7
 10
1542.4499999999989
 20
702.96192893400984
  0
POINT
  8
_0-4_
 62
    7
 10
1547.4499999999989
 20
702.96192893400984
  0
LINE
  8
_0-4_
  6
CONTINUOUS
 62
    7
 10
1542.4499999999989
 20
702.96192893400984
 11
1542.4499999999989
 21
677.96192893400984
  0
LINE
  8
_0-4_
  6
CONTINUOUS
 62
    7
 10
1547.4499999999989
 20
702.96192893400984
 11
1547.4499999999989
 21
677.96192893400984
  0
LINE
  8
_0-4_
  6
CONTINUOUS
 62
    7
 10
1542.4499999999989
 20
702.96192893400984
 11
1547.4499999999989
 21
702.96192893400984
  0
TEXT
  8
_0-4_
 62
    7
 10
1531.9499999999989
 20
702.96192893400984
 40
16
 41
1
 50
0
  1
5.0
  0
POINT
  8
_0-4_
 62
    7
 10
1553.9499999999989
 20
752.96192893400973
  0
POINT
  8
_0-4_
 62
    7
 10
1558.9499999999989
 20
752.96192893400973
  0
LINE
  8
_0-4_
  6
CONTINUOUS
 62
    7
 10
1553.9499999999989
 20
752.96192893400973
 11
1553.9499999999989
 21
727.96192893400973
  0
LINE
  8
_0-4_
  6
CONTINUOUS
 62
    7
 10
1558.9499999999989
 20
752.96192893400973
 11
1558.9499999999989
 21
727.96192893400973
  0
LINE
  8
_0-4_
  6
CONTINUOUS
 62
    7
 10
1553.9499999999989
 20
752.96192893400973
 11
1558.9499999999989
 21
752.96192893400973
  0
TEXT
  8
_0-4_
 62
    7
 10
1543.4499999999989
 20
752.96192893400973
 40
16
 41
1
 50
0
  1
5.0
  0
POINT
  8
_0-4_
 62
    7
 10
1535.9499999999989
 20
572.96192893400973
  0
POINT
  8
_0-4_
 62
    7
 10
1542.4499999999989
 20
572.96192893400973
  0
LINE
  8
_0-4_
  6
CONTINUOUS
 62
    7
 10
1535.9499999999989
 20
572.96192893400973
 11
1535.9499999999989
 21
547.96192893400973
  0
LINE
  8
_0-4_
  6
CONTINUOUS
 62
    7
 10
1542.4499999999989
 20
572.96192893400973
 11
1542.4499999999989
 21
547.96192893400973
  0
LINE
  8
_0-4_
  6
CONTINUOUS
 62
    7
 10
1535.9499999999989
 20
572.96192893400973
 11
1542.4499999999989
 21
572.96192893400973
  0
TEXT
  8
_0-4_
 62
    7
 10
1526.2
 20
572.96192893400973
 40
16
 41
1
 50
0
  1
6.5
  0
POINT
  8
_0-4_
 62
    7
 10
1547.4499999999989
 20
522.96192893400973
  0
POINT
  8
_0-4_
 62
    7
 10
1553.9499999999989
 20
522.96192893400973
  0
LINE
  8
_0-4_
  6
CONTINUOUS
 62
    7
 10
1547.4499999999989
 20
522.96192893400973
 11
1547.4499999999989
 21
497.96192893400967
  0
LINE
  8
_0-4_
  6
CONTINUOUS
 62
    7
 10
1553.9499999999989
 20
522.96192893400973
 11
1553.9499999999989
 21
497.96192893400967
  0
LINE
  8
_0-4_
  6
CONTINUOUS
 62
    7
 10
1547.4499999999989
 20
522.96192893400973
 11
1553.9499999999989
 21
522.96192893400973
  0
TEXT
  8
_0-4_
 62
    7
 10
1537.7
 20
522.96192893400973
 40
16
 41
1
 50
0
  1
6.5
  0
POINT
  8
_0-4_
 62
    7
 10
180
 20
862.2619289340098
  0
POINT
  8
_0-4_
 62
    7
 10
180
 20
857.46192893401018
  0
LINE
  8
_0-4_
  6
CONTINUOUS
 62
    7
 10
180
 20
862.2619289340098
 11
160
 21
862.2619289340098
  0
LINE
  8
_0-4_
  6
CONTINUOUS
 62
    7
 10
180
 20
857.46192893401018
 11
160
 21
857.46192893401018
  0
LINE
  8
_0-4_
  6
CONTINUOUS
 62
    7
 10
180
 20
862.2619289340098
 11
180
 21
857.46192893401018
  0
TEXT
  8
_0-4_
 62
    7
 10
180
 20
846.86192893401016
 40
16
 41
1
 50
90
  1
4.8
  0
POINT
  8
_0-4_
 62
    7
 10
112.35000000000013
 20
807.46192893401018
  0
POINT
  8
_0-4_
 62
    7
 10
147.6500000000002
 20
807.46192893401018
  0
LINE
  8
_0-4_
  6
CONTINUOUS
 62
    7
 10
112.35000000000013
 20
807.46192893401018
 11
112.35000000000013
 21
827.46192893401018
  0
LINE
  8
_0-4_
  6
CONTINUOUS
 62
    7
 10
147.6500000000002
 20
807.46192893401018
 11
147.6500000000002
 21
827.46192893401018
  0
LINE
  8
_0-4_
  6
CONTINUOUS
 62
    7
 10
112.35000000000013
 20
807.46192893401018
 11
147.6500000000002
 21
807.46192893401018
  0
TEXT
  8
_0-4_
 62
    7
 10
112.50000000000022
 20
807.46192893401018
 40
16
 41
1
 50
0
  1
35.3
  0
LINE
  8
_0-1_
  6
CONTINUOUS
 62
    7
 10
112.50000000000011
 20
857.46192893401018
 11
146.45000089649033
 21
857.46192893401018
  0
LINE
  8
_0-f_
  6
CONTINUOUS
 62
    7
 10
300
 20
1027.4619289340103
 11
360
 21
1027.4619289340103
  0
LINE
  8
_0-f_
  6
CONTINUOUS
 62
    7
 10
360
 20
1027.4619289340103
 11
360
 21
1087.4619289340103
  0
LINE
  8
_0-f_
  6
CONTINUOUS
 62
    7
 10
360
 20
1087.4619289340103
 11
300
 21
1087.4619289340103
  0
LINE
  8
_0-f_
  6
CONTINUOUS
 62
    7
 10
300
 20
1087.4619289340103
 11
300
 21
1027.4619289340103
  0
LINE
  8
_0-f_
  6
CONTINUOUS
 62
    7
 10
500
 20
1027.4619289340103
 11
560
 21
1027.4619289340103
  0
LINE
  8
_0-f_
  6
CONTINUOUS
 62
    7
 10
560
 20
1027.4619289340103
 11
560
 21
1087.4619289340103
  0
LINE
  8
_0-f_
  6
CONTINUOUS
 62
    7
 10
560
 20
1087.4619289340103
 11
500
 21
1087.4619289340103
  0
LINE
  8
_0-f_
  6
CONTINUOUS
 62
    7
 10
500
 20
1087.4619289340103
 11
500
 21
1027.4619289340103
  0
LINE
  8
_0-f_
  6
CONTINUOUS
 62
    7
 10
700
 20
1027.4619289340103
 11
760
 21
1027.4619289340103
  0
LINE
  8
_0-f_
  6
CONTINUOUS
 62
    7
 10
760
 20
1027.4619289340103
 11
760
 21
1087.4619289340103
  0
LINE
  8
_0-f_
  6
CONTINUOUS
 62
    7
 10
760
 20
1087.4619289340103
 11
700
 21
1087.4619289340103
  0
LINE
  8
_0-f_
  6
CONTINUOUS
 62
    7
 10
700
 20
1087.4619289340103
 11
700
 21
1027.4619289340103
  0
LINE
  8
_0-f_
  6
CONTINUOUS
 62
    7
 10
900
 20
1027.4619289340103
 11
960
 21
1027.4619289340103
  0
LINE
  8
_0-f_
  6
CONTINUOUS
 62
    7
 10
960
 20
1027.4619289340103
 11
960
 21
1087.4619289340103
  0
LINE
  8
_0-f_
  6
CONTINUOUS
 62
    7
 10
960
 20
1087.4619289340103
 11
900
 21
1087.4619289340103
  0
LINE
  8
_0-f_
  6
CONTINUOUS
 62
    7
 10
900
 20
1087.4619289340103
 11
900
 21
1027.4619289340103
  0
LINE
  8
_0-f_
  6
CONTINUOUS
 62
    7
 10
1100
 20
1027.4619289340103
 11
1160
 21
1027.4619289340103
  0
LINE
  8
_0-f_
  6
CONTINUOUS
 62
    7
 10
1160
 20
1027.4619289340103
 11
1160
 21
1087.4619289340103
  0
LINE
  8
_0-f_
  6
CONTINUOUS
 62
    7
 10
1160
 20
1087.4619289340103
 11
1100
 21
1087.4619289340103
  0
LINE
  8
_0-f_
  6
CONTINUOUS
 62
    7
 10
1100
 20
1087.4619289340103
 11
1100
 21
1027.4619289340103
  0
LINE
  8
_0-f_
  6
CONTINUOUS
 62
    7
 10
1300
 20
1027.4619289340103
 11
1360
 21
1027.4619289340103
  0
LINE
  8
_0-f_
  6
CONTINUOUS
 62
    7
 10
1360
 20
1027.4619289340103
 11
1360
 21
1087.4619289340103
  0
LINE
  8
_0-f_
  6
CONTINUOUS
 62
    7
 10
1360
 20
1087.4619289340103
 11
1300
 21
1087.4619289340103
  0
LINE
  8
_0-f_
  6
CONTINUOUS
 62
    7
 10
1300
 20
1087.4619289340103
 11
1300
 21
1027.4619289340103
  0
LINE
  8
_0-f_
  6
CONTINUOUS
 62
    7
 10
280
 20
1007.4619289340101
 11
380
 21
1007.4619289340101
  0
LINE
  8
_0-f_
  6
CONTINUOUS
 62
    7
 10
380
 20
1007.4619289340101
 11
380
 21
1107.4619289340103
  0
LINE
  8
_0-f_
  6
CONTINUOUS
 62
    7
 10
380
 20
1107.4619289340103
 11
280
 21
1107.4619289340103
  0
LINE
  8
_0-f_
  6
CONTINUOUS
 62
    7
 10
280
 20
1107.4619289340103
 11
280
 21
1007.4619289340101
  0
LINE
  8
_0-f_
  6
CONTINUOUS
 62
    7
 10
480
 20
1007.4619289340101
 11
580
 21
1007.4619289340101
  0
LINE
  8
_0-f_
  6
CONTINUOUS
 62
    7
 10
580
 20
1007.4619289340101
 11
580
 21
1107.4619289340103
  0
LINE
  8
_0-f_
  6
CONTINUOUS
 62
    7
 10
580
 20
1107.4619289340103
 11
480
 21
1107.4619289340103
  0
LINE
  8
_0-f_
  6
CONTINUOUS
 62
    7
 10
480
 20
1107.4619289340103
 11
480
 21
1007.4619289340101
  0
LINE
  8
_0-f_
  6
CONTINUOUS
 62
    7
 10
680
 20
1007.4619289340101
 11
780
 21
1007.4619289340101
  0
LINE
  8
_0-f_
  6
CONTINUOUS
 62
    7
 10
780
 20
1007.4619289340101
 11
780
 21
1107.4619289340103
  0
LINE
  8
_0-f_
  6
CONTINUOUS
 62
    7
 10
780
 20
1107.4619289340103
 11
680
 21
1107.4619289340103
  0
LINE
  8
_0-f_
  6
CONTINUOUS
 62
    7
 10
680
 20
1107.4619289340103
 11
680
 21
1007.4619289340101
  0
LINE
  8
_0-f_
  6
CONTINUOUS
 62
    7
 10
880
 20
1007.4619289340101
 11
980
 21
1007.4619289340101
  0
LINE
  8
_0-f_
  6
CONTINUOUS
 62
    7
 10
980
 20
1007.4619289340101
 11
980
 21
1107.4619289340103
  0
LINE
  8
_0-f_
  6
CONTINUOUS
 62
    7
 10
980
 20
1107.4619289340103
 11
880
 21
1107.4619289340103
  0
LINE
  8
_0-f_
  6
CONTINUOUS
 62
    7
 10
880
 20
1107.4619289340103
 11
880
 21
1007.4619289340101
  0
LINE
  8
_0-f_
  6
CONTINUOUS
 62
    7
 10
1080
 20
1007.4619289340101
 11
1180
 21
1007.4619289340101
  0
LINE
  8
_0-f_
  6
CONTINUOUS
 62
    7
 10
1180
 20
1007.4619289340101
 11
1180
 21
1107.4619289340103
  0
LINE
  8
_0-f_
  6
CONTINUOUS
 62
    7
 10
1180
 20
1107.4619289340103
 11
1080
 21
1107.4619289340103
  0
LINE
  8
_0-f_
  6
CONTINUOUS
 62
    7
 10
1080
 20
1107.4619289340103
 11
1080
 21
1007.4619289340101
  0
LINE
  8
_0-0_
  6
CONTINUOUS
 62
    7
 10
230
 20
1157.4619289340103
 11
430
 21
1157.4619289340103
  0
LINE
  8
_0-0_
  6
CONTINUOUS
 62
    7
 10
230
 20
957.46192893401018
 11
230
 21
1157.4619289340103
  0
LINE
  8
_0-0_
  6
CONTINUOUS
 62
    7
 10
430
 20
1157.4619289340103
 11
630
 21
1157.4619289340103
  0
LINE
  8
_0-f_
  6
CONTINUOUS
 62
    7
 10
1490
 20
303.46192893400939
 11
1470
 21
303.46192893400939
  0
LINE
  8
_0-f_
  6
CONTINUOUS
 62
    7
 10
1470
 20
303.46192893400939
 11
1470
 21
323.46192893400939
  0
LINE
  8
_0-f_
  6
CONTINUOUS
 62
    7
 10
1470
 20
323.46192893400939
 11
1490
 21
323.46192893400939
  0
LINE
  8
_0-f_
  6
CONTINUOUS
 62
    7
 10
1490
 20
323.46192893400939
 11
1490
 21
303.46192893400939
  0
LINE
  8
_0-f_
  6
CONTINUOUS
 62
    7
 10
1600
 20
303.46192893400916
 11
1620
 21
303.46192893400916
  0
LINE
  8
_0-f_
  6
CONTINUOUS
 62
    7
 10
1620
 20
303.46192893400916
 11
1620
 21
323.46192893400916
  0
LINE
  8
_0-f_
  6
CONTINUOUS
 62
    7
 10
1620
 20
323.46192893400916
 11
1600
 21
323.46192893400916
  0
LINE
  8
_0-f_
  6
CONTINUOUS
 62
    7
 10
1600
 20
323.46192893400916
 11
1600
 21
303.46192893400916
  0
LINE
  8
_0-f_
  6
CONTINUOUS
 62
    7
 10
1600
 20
323.46192893400916
 11
1620
 21
323.46192893400916
  0
LINE
  8
_0-f_
  6
CONTINUOUS
 62
    7
 10
1620
 20
323.46192893400916
 11
1620
 21
343.46192893400927
  0
LINE
  8
_0-f_
  6
CONTINUOUS
 62
    7
 10
1620
 20
343.46192893400927
 11
1600
 21
343.46192893400927
  0
LINE
  8
_0-f_
  6
CONTINUOUS
 62
    7
 10
1600
 20
343.46192893400927
 11
1600
 21
323.46192893400916
  0
LINE
  8
_0-f_
  6
CONTINUOUS
 62
    7
 10
1490
 20
323.46192893400939
 11
1470
 21
323.46192893400939
  0
LINE
  8
_0-f_
  6
CONTINUOUS
 62
    7
 10
1470
 20
323.46192893400939
 11
1470
 21
343.46192893400939
  0
LINE
  8
_0-f_
  6
CONTINUOUS
 62
    7
 10
1470
 20
343.46192893400939
 11
1490
 21
343.46192893400939
  0
LINE
  8
_0-f_
  6
CONTINUOUS
 62
    7
 10
1490
 20
343.46192893400939
 11
1490
 21
323.46192893400939
  0
LINE
  8
_0-1_
  6
CONTINUOUS
 62
    7
 10
130.79999999999995
 20
679.16192893401023
 11
130.79999999999995
 21
678.56192893401021
  0
LINE
  8
_0-1_
  6
CONTINUOUS
 62
    7
 10
130.79999999999995
 20
678.56192893401021
 11
130.20000000000004
 21
678.56192893401021
  0
LINE
  8
_0-1_
  6
CONTINUOUS
 62
    7
 10
130.20000000000004
 20
678.56192893401021
 11
129.89999999999986
 21
678.56192893401021
  0
LINE
  8
_0-1_
  6
CONTINUOUS
 62
    7
 10
129.89999999999986
 20
678.56192893401021
 11
129.39999999999997
 21
678.56192893401021
  0
LINE
  8
_0-1_
  6
CONTINUOUS
 62
    7
 10
129.39999999999997
 20
678.56192893401021
 11
128.39999999999997
 21
678.56192893401021
  0
LINE
  8
_0-1_
  6
CONTINUOUS
 62
    7
 10
128.39999999999997
 20
678.56192893401021
 11
128.25621000000001
 21
678.56192893401021
  0
LINE
  8
_0-1_
  6
CONTINUOUS
 62
    7
 10
128.25621000000001
 20
678.56192893401021
 11
127.79999999999995
 21
678.56192893401021
  0
LINE
  8
_0-1_
  6
CONTINUOUS
 62
    7
 10
127.79999999999995
 20
678.56192893401021
 11
127.75556000000005
 21
678.56192893401021
  0
LINE
  8
_0-1_
  6
CONTINUOUS
 62
    7
 10
127.75556000000005
 20
678.56192893401021
 11
127.60000000000002
 21
678.56192893401021
  0
LINE
  8
_0-1_
  6
CONTINUOUS
 62
    7
 10
127.60000000000002
 20
678.56192893401021
 11
127.55556000000001
 21
678.56192893401021
  0
LINE
  8
_0-1_
  6
CONTINUOUS
 62
    7
 10
127.55556000000001
 20
678.56192893401021
 11
127.05620999999985
 21
678.56192893401021
  0
LINE
  8
_0-1_
  6
CONTINUOUS
 62
    7
 10
127.05620999999985
 20
678.56192893401021
 11
125.5
 21
678.56192893401021
  0
ARC
  8
_0-1_
  6
CONTINUOUS
 62
    7
 10
125.49999932763239
 20
679.46192826164258
 40
0.8999993276325879
 50
179.99995719571316
 51
270.0000428042872
  0
LINE
  8
_0-1_
  6
CONTINUOUS
 62
    7
 10
124.60000000000002
 20
679.46192893401018
 11
124.60000000000002
 21
680.91748893400995
  0
LINE
  8
_0-1_
  6
CONTINUOUS
 62
    7
 10
124.60000000000002
 20
680.91748893400995
 11
124.60000000000002
 21
681.56192893401021
  0
LINE
  8
_0-1_
  6
CONTINUOUS
 62
    7
 10
124.60000000000002
 20
681.56192893401021
 11
124.60000000000002
 21
682.22192893400995
  0
LINE
  8
_0-1_
  6
CONTINUOUS
 62
    7
 10
124.60000000000002
 20
682.22192893400995
 11
124.60000000000002
 21
682.42192893401022
  0
LINE
  8
_0-1_
  6
CONTINUOUS
 62
    7
 10
124.60000000000002
 20
682.42192893401022
 11
124.60000000000002
 21
683.0219289340099
  0
LINE
  8
_0-1_
  6
CONTINUOUS
 62
    7
 10
124.60000000000002
 20
683.0219289340099
 11
124.60000000000002
 21
685.26192893401014
  0
LINE
  8
_0-1_
  6
CONTINUOUS
 62
    7
 10
124.60000000000002
 20
685.26192893401014
 11
124.60000000000002
 21
691.26192893400991
  0
LINE
  8
_0-1_
  6
CONTINUOUS
 62
    7
 10
124.60000000000002
 20
691.26192893400991
 11
124.60000000000002
 21
692.46192893401018
  0
LINE
  8
_0-1_
  6
CONTINUOUS
 62
    7
 10
124.60000000000002
 20
692.46192893401018
 11
124.60000000000002
 21
694.46192893401018
  0
LINE
  8
_0-1_
  6
CONTINUOUS
 62
    7
 10
124.60000000000002
 20
694.46192893401018
 11
124.60000000000002
 21
695.66192893401023
  0
LINE
  8
_0-1_
  6
CONTINUOUS
 62
    7
 10
124.60000000000002
 20
695.66192893401023
 11
124.60000000000002
 21
697.91748893400983
  0
LINE
  8
_0-1_
  6
CONTINUOUS
 62
    7
 10
124.60000000000002
 20
697.91748893400983
 11
124.60000000000002
 21
699.91748893401017
  0
LINE
  8
_0-1_
  6
CONTINUOUS
 62
    7
 10
124.60000000000002
 20
699.91748893401017
 11
124.60000000000002
 21
700.11470893401019
  0
LINE
  8
_0-1_
  6
CONTINUOUS
 62
    7
 10
124.60000000000002
 20
700.11470893401019
 11
124.60000000000002
 21
701.21192893401018
  0
ARC
  8
_0-1_
  6
CONTINUOUS
 62
    7
 10
124.45000011206127
 20
701.21192904607153
 40
0.1499998879387628
 50
359.99995719571029
 51
90.000042804284234
  0
ARC
  8
_0-1_
  6
CONTINUOUS
 62
    7
 10
124.4499998879387
 20
701.21192904607153
 40
0.14999988793877
 50
89.999957195713022
 51
180.00004280428686
  0
LINE
  8
_0-1_
  6
CONTINUOUS
 62
    7
 10
124.29999999999995
 20
701.21192893401018
 11
124.29999999999995
 21
700.11470893401019
  0
LINE
  8
_0-1_
  6
CONTINUOUS
 62
    7
 10
124.29999999999995
 20
700.11470893401019
 11
124.29999999999995
 21
699.91748893401017
  0
LINE
  8
_0-1_
  6
CONTINUOUS
 62
    7
 10
124.29999999999995
 20
699.91748893401017
 11
124.29999999999995
 21
697.26192893400991
  0
LINE
  8
_0-1_
  6
CONTINUOUS
 62
    7
 10
124.29999999999995
 20
697.26192893400991
 11
124.29999999999995
 21
695.66192893401023
  0
LINE
  8
_0-1_
  6
CONTINUOUS
 62
    7
 10
124.29999999999995
 20
695.66192893401023
 11
124.29999999999995
 21
694.46192893401018
  0
LINE
  8
_0-1_
  6
CONTINUOUS
 62
    7
 10
124.29999999999995
 20
694.46192893401018
 11
124.29999999999995
 21
692.46192893401018
  0
LINE
  8
_0-1_
  6
CONTINUOUS
 62
    7
 10
124.29999999999995
 20
692.46192893401018
 11
124.29999999999995
 21
691.26192893400991
  0
LINE
  8
_0-1_
  6
CONTINUOUS
 62
    7
 10
124.29999999999995
 20
691.26192893400991
 11
124.29999999999995
 21
685.26192893401014
  0
LINE
  8
_0-1_
  6
CONTINUOUS
 62
    7
 10
124.29999999999995
 20
685.26192893401014
 11
124.29999999999995
 21
676.76192893401014
  0
LINE
  8
_0-1_
  6
CONTINUOUS
 62
    7
 10
124.29999999999995
 20
676.76192893401014
 11
124.29999999999995
 21
670.66192893401023
  0
LINE
  8
_0-1_
  6
CONTINUOUS
 62
    7
 10
124.29999999999995
 20
670.66192893401023
 11
124.29999999999995
 21
669.96192893401018
  0
LINE
  8
_0-1_
  6
CONTINUOUS
 62
    7
 10
124.29999999999995
 20
669.96192893401018
 11
124.29999999999995
 21
669.46192893401018
  0
LINE
  8
_0-1_
  6
CONTINUOUS
 62
    7
 10
124.29999999999995
 20
669.46192893401018
 11
124.29999999999995
 21
668.66192893401023
  0
LINE
  8
_0-1_
  6
CONTINUOUS
 62
    7
 10
124.29999999999995
 20
668.66192893401023
 11
124.29999999999995
 21
667.66192893401023
  0
LINE
  8
_0-1_
  6
CONTINUOUS
 62
    7
 10
124.29999999999995
 20
667.66192893401023
 11
124.29999999999995
 21
663.91748893400995
  0
LINE
  8
_0-1_
  6
CONTINUOUS
 62
    7
 10
124.29999999999995
 20
663.91748893400995
 11
124.29999999999995
 21
662.91748893401017
  0
LINE
  8
_0-1_
  6
CONTINUOUS
 62
    7
 10
124.29999999999995
 20
662.91748893401017
 11
124.29999999999995
 21
662.80914893401018
  0
LINE
  8
_0-1_
  6
CONTINUOUS
 62
    7
 10
124.29999999999995
 20
662.80914893401018
 11
124.29999999999995
 21
661.71192893401018
  0
ARC
  8
_0-1_
  6
CONTINUOUS
 62
    7
 10
124.4499998879387
 20
661.71192882194884
 40
0.1499998879387663
 50
179.99995719571435
 51
270.00004280428822
  0
ARC
  8
_0-1_
  6
CONTINUOUS
 62
    7
 10
124.45000011206127
 20
661.71192882194884
 40
0.1499998879387592
 50
269.99995719571438
 51
0.0000428042883508
  0
LINE
  8
_0-1_
  6
CONTINUOUS
 62
    7
 10
124.60000000000002
 20
661.71192893401018
 11
124.60000000000002
 21
662.80914893401018
  0
LINE
  8
_0-1_
  6
CONTINUOUS
 62
    7
 10
124.60000000000002
 20
662.80914893401018
 11
124.60000000000002
 21
662.91748893401017
  0
LINE
  8
_0-1_
  6
CONTINUOUS
 62
    7
 10
124.60000000000002
 20
662.91748893401017
 11
124.60000000000002
 21
663.91748893400995
  0
LINE
  8
_0-1_
  6
CONTINUOUS
 62
    7
 10
124.60000000000002
 20
663.91748893400995
 11
124.60000000000002
 21
667.66192893401023
  0
LINE
  8
_0-1_
  6
CONTINUOUS
 62
    7
 10
124.60000000000002
 20
667.66192893401023
 11
124.60000000000002
 21
668.66192893401023
  0
LINE
  8
_0-1_
  6
CONTINUOUS
 62
    7
 10
124.60000000000002
 20
668.66192893401023
 11
124.60000000000002
 21
669.46192893401018
  0
LINE
  8
_0-1_
  6
CONTINUOUS
 62
    7
 10
124.60000000000002
 20
669.46192893401018
 11
124.60000000000002
 21
669.96192893401018
  0
LINE
  8
_0-1_
  6
CONTINUOUS
 62
    7
 10
124.60000000000002
 20
669.96192893401018
 11
124.60000000000002
 21
670.66192893401023
  0
LINE
  8
_0-1_
  6
CONTINUOUS
 62
    7
 10
124.60000000000002
 20
670.66192893401023
 11
124.60000000000002
 21
674.56192893401021
  0
LINE
  8
_0-1_
  6
CONTINUOUS
 62
    7
 10
124.60000000000002
 20
674.56192893401021
 11
124.60000000000002
 21
676.66192893401023
  0
ARC
  8
_0-1_
  6
CONTINUOUS
 62
    7
 10
125.49999932763239
 20
676.66192960637783
 40
0.8999993276325879
 50
89.999957195712795
 51
180.00004280428666
  0
LINE
  8
_0-1_
  6
CONTINUOUS
 62
    7
 10
125.5
 20
677.56192893401021
 11
127.05620999999985
 21
677.56192893401021
  0
LINE
  8
_0-1_
  6
CONTINUOUS
 62
    7
 10
127.05620999999985
 20
677.56192893401021
 11
127.55556000000001
 21
677.56192893401021
  0
LINE
  8
_0-1_
  6
CONTINUOUS
 62
    7
 10
127.55556000000001
 20
677.56192893401021
 11
127.60000000000002
 21
677.56192893401021
  0
LINE
  8
_0-1_
  6
CONTINUOUS
 62
    7
 10
127.60000000000002
 20
677.56192893401021
 11
127.75556000000005
 21
677.56192893401021
  0
LINE
  8
_0-1_
  6
CONTINUOUS
 62
    7
 10
127.75556000000005
 20
677.56192893401021
 11
127.79999999999995
 21
677.56192893401021
  0
LINE
  8
_0-1_
  6
CONTINUOUS
 62
    7
 10
127.79999999999995
 20
677.56192893401021
 11
128.25621000000001
 21
677.56192893401021
  0
LINE
  8
_0-1_
  6
CONTINUOUS
 62
    7
 10
128.25621000000001
 20
677.56192893401021
 11
128.39999999999997
 21
677.56192893401021
  0
LINE
  8
_0-1_
  6
CONTINUOUS
 62
    7
 10
128.39999999999997
 20
677.56192893401021
 11
129.39999999999997
 21
677.56192893401021
  0
LINE
  8
_0-1_
  6
CONTINUOUS
 62
    7
 10
129.39999999999997
 20
677.56192893401021
 11
129.89999999999986
 21
677.56192893401021
  0
LINE
  8
_0-1_
  6
CONTINUOUS
 62
    7
 10
129.89999999999986
 20
677.56192893401021
 11
130.20000000000004
 21
677.56192893401021
  0
LINE
  8
_0-1_
  6
CONTINUOUS
 62
    7
 10
130.20000000000004
 20
677.56192893401021
 11
130.79999999999995
 21
677.56192893401021
  0
LINE
  8
_0-1_
  6
CONTINUOUS
 62
    7
 10
130.79999999999995
 20
677.56192893401021
 11
130.79999999999995
 21
676.96192893401007
  0
LINE
  8
_0-1_
  6
CONTINUOUS
 62
    7
 10
130.79999999999995
 20
676.96192893401007
 11
130.20000000000004
 21
676.96192893401007
  0
LINE
  8
_0-1_
  6
CONTINUOUS
 62
    7
 10
130.20000000000004
 20
676.96192893401007
 11
129.89999999999986
 21
676.96192893401007
  0
LINE
  8
_0-1_
  6
CONTINUOUS
 62
    7
 10
129.89999999999986
 20
676.96192893401007
 11
129.39999999999997
 21
676.96192893401007
  0
LINE
  8
_0-1_
  6
CONTINUOUS
 62
    7
 10
129.39999999999997
 20
676.96192893401007
 11
128.39999999999997
 21
676.96192893401007
  0
LINE
  8
_0-1_
  6
CONTINUOUS
 62
    7
 10
128.39999999999997
 20
676.96192893401007
 11
128.25621000000001
 21
676.96192893401007
  0
LINE
  8
_0-1_
  6
CONTINUOUS
 62
    7
 10
128.25621000000001
 20
676.96192893401007
 11
127.79999999999995
 21
676.96192893401007
  0
LINE
  8
_0-1_
  6
CONTINUOUS
 62
    7
 10
127.79999999999995
 20
676.96192893401007
 11
127.75556000000005
 21
676.96192893401007
  0
LINE
  8
_0-1_
  6
CONTINUOUS
 62
    7
 10
127.75556000000005
 20
676.96192893401007
 11
127.60000000000002
 21
676.96192893401007
  0
LINE
  8
_0-1_
  6
CONTINUOUS
 62
    7
 10
127.60000000000002
 20
676.96192893401007
 11
127.55556000000001
 21
676.96192893401007
  0
LINE
  8
_0-1_
  6
CONTINUOUS
 62
    7
 10
127.55556000000001
 20
676.96192893401007
 11
127.05620999999985
 21
676.96192893401007
  0
LINE
  8
_0-1_
  6
CONTINUOUS
 62
    7
 10
127.05620999999985
 20
676.96192893401007
 11
125.5
 21
676.96192893401007
  0
ARC
  8
_0-1_
  6
CONTINUOUS
 62
    7
 10
125.49999977587742
 20
676.66192915813235
 40
0.2999997758775257
 50
89.999957195713022
 51
180.00004280428686
  0
LINE
  8
_0-1_
  6
CONTINUOUS
 62
    7
 10
125.20000000000004
 20
676.66192893401023
 11
125.20000000000004
 21
674.56192893401021
  0
LINE
  8
_0-1_
  6
CONTINUOUS
 62
    7
 10
125.20000000000004
 20
674.56192893401021
 11
125.20000000000004
 21
670.66192893401023
  0
LINE
  8
_0-1_
  6
CONTINUOUS
 62
    7
 10
125.20000000000004
 20
670.66192893401023
 11
125.20000000000004
 21
669.96192893401018
  0
LINE
  8
_0-1_
  6
CONTINUOUS
 62
    7
 10
125.20000000000004
 20
669.96192893401018
 11
125.20000000000004
 21
669.46192893401018
  0
LINE
  8
_0-1_
  6
CONTINUOUS
 62
    7
 10
125.20000000000004
 20
669.46192893401018
 11
125.20000000000004
 21
668.66192893401023
  0
LINE
  8
_0-1_
  6
CONTINUOUS
 62
    7
 10
125.20000000000004
 20
668.66192893401023
 11
125.20000000000004
 21
667.66192893401023
  0
LINE
  8
_0-1_
  6
CONTINUOUS
 62
    7
 10
125.20000000000004
 20
667.66192893401023
 11
125.20000000000004
 21
663.91748893400995
  0
LINE
  8
_0-1_
  6
CONTINUOUS
 62
    7
 10
125.20000000000004
 20
663.91748893400995
 11
125.20000000000004
 21
662.91748893401017
  0
LINE
  8
_0-1_
  6
CONTINUOUS
 62
    7
 10
125.20000000000004
 20
662.91748893401017
 11
125.20000000000004
 21
662.80914893401018
  0
LINE
  8
_0-1_
  6
CONTINUOUS
 62
    7
 10
125.20000000000004
 20
662.80914893401018
 11
125.20000000000004
 21
661.71192893401018
  0
ARC
  8
_0-1_
  6
CONTINUOUS
 62
    7
 10
124.4500192758378
 20
661.71192715268364
 40
0.7499807241643591
 50
289.81898599294947
 51
0.0001360868235102
  0
ARC
  8
_0-1_
  6
CONTINUOUS
 62
    7
 10
124.44999999056517
 20
661.71174225982542
 40
0.7498133258155007
 50
270.00000072093666
 51
289.82516255165234
  0
ARC
  8
_0-1_
  6
CONTINUOUS
 62
    7
 10
124.44999943969355
 20
661.71192837370381
 40
0.7499994396938216
 50
179.99995719571299
 51
270.00004280428697
  0
LINE
  8
_0-1_
  6
CONTINUOUS
 62
    7
 10
123.70000000000004
 20
661.71192893401018
 11
123.70000000000004
 21
662.80914893401018
  0
LINE
  8
_0-1_
  6
CONTINUOUS
 62
    7
 10
123.70000000000004
 20
662.80914893401018
 11
123.70000000000004
 21
662.91748893401017
  0
LINE
  8
_0-1_
  6
CONTINUOUS
 62
    7
 10
123.70000000000004
 20
662.91748893401017
 11
123.70000000000004
 21
663.91748893400995
  0
LINE
  8
_0-1_
  6
CONTINUOUS
 62
    7
 10
123.70000000000004
 20
663.91748893400995
 11
123.70000000000004
 21
667.66192893401023
  0
LINE
  8
_0-1_
  6
CONTINUOUS
 62
    7
 10
123.70000000000004
 20
667.66192893401023
 11
123.70000000000004
 21
668.66192893401023
  0
LINE
  8
_0-1_
  6
CONTINUOUS
 62
    7
 10
123.70000000000004
 20
668.66192893401023
 11
123.70000000000004
 21
669.46192893401018
  0
LINE
  8
_0-1_
  6
CONTINUOUS
 62
    7
 10
123.70000000000004
 20
669.46192893401018
 11
123.70000000000004
 21
669.96192893401018
  0
LINE
  8
_0-1_
  6
CONTINUOUS
 62
    7
 10
123.70000000000004
 20
669.96192893401018
 11
123.70000000000004
 21
670.66192893401023
  0
LINE
  8
_0-1_
  6
CONTINUOUS
 62
    7
 10
123.70000000000004
 20
670.66192893401023
 11
123.70000000000004
 21
676.76192893401014
  0
LINE
  8
_0-1_
  6
CONTINUOUS
 62
    7
 10
123.70000000000004
 20
676.76192893401014
 11
123.70000000000004
 21
685.26192893401014
  0
LINE
  8
_0-1_
  6
CONTINUOUS
 62
    7
 10
123.70000000000004
 20
685.26192893401014
 11
123.70000000000004
 21
691.26192893400991
  0
LINE
  8
_0-1_
  6
CONTINUOUS
 62
    7
 10
123.70000000000004
 20
691.26192893400991
 11
123.70000000000004
 21
692.46192893401018
  0
LINE
  8
_0-1_
  6
CONTINUOUS
 62
    7
 10
123.70000000000004
 20
692.46192893401018
 11
123.70000000000004
 21
694.46192893401018
  0
LINE
  8
_0-1_
  6
CONTINUOUS
 62
    7
 10
123.70000000000004
 20
694.46192893401018
 11
123.70000000000004
 21
695.66192893401023
  0
LINE
  8
_0-1_
  6
CONTINUOUS
 62
    7
 10
123.70000000000004
 20
695.66192893401023
 11
123.70000000000004
 21
697.26192893400991
  0
LINE
  8
_0-1_
  6
CONTINUOUS
 62
    7
 10
123.70000000000004
 20
697.26192893400991
 11
123.70000000000004
 21
699.91748893401017
  0
LINE
  8
_0-1_
  6
CONTINUOUS
 62
    7
 10
123.70000000000004
 20
699.91748893401017
 11
123.70000000000004
 21
700.11470893401019
  0
LINE
  8
_0-1_
  6
CONTINUOUS
 62
    7
 10
123.70000000000004
 20
700.11470893401019
 11
123.70000000000004
 21
701.21192893401018
  0
ARC
  8
_0-1_
  6
CONTINUOUS
 62
    7
 10
124.44999943969355
 20
701.21192949431656
 40
0.7499994396938216
 50
89.999957195713022
 51
180.00004280428686
  0
ARC
  8
_0-1_
  6
CONTINUOUS
 62
    7
 10
124.4500133850845
 20
701.21219225594938
 40
0.7497366781803195
 50
70.173813823145266
 51
90.001022904268722
  0
ARC
  8
_0-1_
  6
CONTINUOUS
 62
    7
 10
124.4500192758378
 20
701.21193071533662
 40
0.7499807241643637
 50
359.99986391317628
 51
70.181014007050336
  0
LINE
  8
_0-1_
  6
CONTINUOUS
 62
    7
 10
125.20000000000004
 20
701.21192893401018
 11
125.20000000000004
 21
700.11470893401019
  0
LINE
  8
_0-1_
  6
CONTINUOUS
 62
    7
 10
125.20000000000004
 20
700.11470893401019
 11
125.20000000000004
 21
699.91748893401017
  0
LINE
  8
_0-1_
  6
CONTINUOUS
 62
    7
 10
125.20000000000004
 20
699.91748893401017
 11
125.20000000000004
 21
697.91748893400983
  0
LINE
  8
_0-1_
  6
CONTINUOUS
 62
    7
 10
125.20000000000004
 20
697.91748893400983
 11
125.20000000000004
 21
695.66192893401023
  0
LINE
  8
_0-1_
  6
CONTINUOUS
 62
    7
 10
125.20000000000004
 20
695.66192893401023
 11
125.20000000000004
 21
694.46192893401018
  0
LINE
  8
_0-1_
  6
CONTINUOUS
 62
    7
 10
125.20000000000004
 20
694.46192893401018
 11
125.20000000000004
 21
692.46192893401018
  0
LINE
  8
_0-1_
  6
CONTINUOUS
 62
    7
 10
125.20000000000004
 20
692.46192893401018
 11
125.20000000000004
 21
691.26192893400991
  0
LINE
  8
_0-1_
  6
CONTINUOUS
 62
    7
 10
125.20000000000004
 20
691.26192893400991
 11
125.20000000000004
 21
685.26192893401014
  0
LINE
  8
_0-1_
  6
CONTINUOUS
 62
    7
 10
125.20000000000004
 20
685.26192893401014
 11
125.20000000000004
 21
683.0219289340099
  0
LINE
  8
_0-1_
  6
CONTINUOUS
 62
    7
 10
125.20000000000004
 20
683.0219289340099
 11
125.20000000000004
 21
682.42192893401022
  0
LINE
  8
_0-1_
  6
CONTINUOUS
 62
    7
 10
125.20000000000004
 20
682.42192893401022
 11
125.20000000000004
 21
682.22192893400995
  0
LINE
  8
_0-1_
  6
CONTINUOUS
 62
    7
 10
125.20000000000004
 20
682.22192893400995
 11
125.20000000000004
 21
681.56192893401021
  0
LINE
  8
_0-1_
  6
CONTINUOUS
 62
    7
 10
125.20000000000004
 20
681.56192893401021
 11
125.20000000000004
 21
680.91748893400995
  0
LINE
  8
_0-1_
  6
CONTINUOUS
 62
    7
 10
125.20000000000004
 20
680.91748893400995
 11
125.20000000000004
 21
679.46192893401018
  0
ARC
  8
_0-1_
  6
CONTINUOUS
 62
    7
 10
125.49999977587742
 20
679.46192870988772
 40
0.2999997758775257
 50
179.99995719571299
 51
270.00004280428697
  0
LINE
  8
_0-1_
  6
CONTINUOUS
 62
    7
 10
125.5
 20
679.16192893401023
 11
127.05620999999985
 21
679.16192893401023
  0
LINE
  8
_0-1_
  6
CONTINUOUS
 62
    7
 10
127.05620999999985
 20
679.16192893401023
 11
127.55556000000001
 21
679.16192893401023
  0
LINE
  8
_0-1_
  6
CONTINUOUS
 62
    7
 10
127.55556000000001
 20
679.16192893401023
 11
127.60000000000002
 21
679.16192893401023
  0
LINE
  8
_0-1_
  6
CONTINUOUS
 62
    7
 10
127.60000000000002
 20
679.16192893401023
 11
127.75556000000005
 21
679.16192893401023
  0
LINE
  8
_0-1_
  6
CONTINUOUS
 62
    7
 10
127.75556000000005
 20
679.16192893401023
 11
127.79999999999995
 21
679.16192893401023
  0
LINE
  8
_0-1_
  6
CONTINUOUS
 62
    7
 10
127.79999999999995
 20
679.16192893401023
 11
128.25621000000001
 21
679.16192893401023
  0
LINE
  8
_0-1_
  6
CONTINUOUS
 62
    7
 10
128.25621000000001
 20
679.16192893401023
 11
128.39999999999997
 21
679.16192893401023
  0
LINE
  8
_0-1_
  6
CONTINUOUS
 62
    7
 10
128.39999999999997
 20
679.16192893401023
 11
129.39999999999997
 21
679.16192893401023
  0
LINE
  8
_0-1_
  6
CONTINUOUS
 62
    7
 10
129.39999999999997
 20
679.16192893401023
 11
129.89999999999986
 21
679.16192893401023
  0
LINE
  8
_0-1_
  6
CONTINUOUS
 62
    7
 10
129.89999999999986
 20
679.16192893401023
 11
130.20000000000004
 21
679.16192893401023
  0
LINE
  8
_0-1_
  6
CONTINUOUS
 62
    7
 10
130.20000000000004
 20
679.16192893401023
 11
130.79999999999995
 21
679.16192893401023
  0
LINE
  8
_0-1_
  6
CONTINUOUS
 62
    7
 10
131
 20
675.91748893401006
 11
131
 21
676.11748893400988
  0
LINE
  8
_0-1_
  6
CONTINUOUS
 62
    7
 10
131
 20
676.11748893400988
 11
131
 21
677.46192893401018
  0
ARC
  8
_0-1_
  6
CONTINUOUS
 62
    7
 10
130.7000002241225
 20
677.46192915813242
 40
0.2999997758775257
 50
359.99995719571302
 51
90.000042804286977
  0
LINE
  8
_0-1_
  6
CONTINUOUS
 62
    7
 10
130.70000000000004
 20
677.76192893400991
 11
128.60000000000002
 21
677.76192893400991
  0
LINE
  8
_0-1_
  6
CONTINUOUS
 62
    7
 10
128.60000000000002
 20
677.76192893400991
 11
128.25621000000001
 21
677.76192893400991
  0
LINE
  8
_0-1_
  6
CONTINUOUS
 62
    7
 10
128.25621000000001
 20
677.76192893400991
 11
128
 21
677.76192893400991
  0
LINE
  8
_0-1_
  6
CONTINUOUS
 62
    7
 10
128
 20
677.76192893400991
 11
127.75556000000005
 21
677.76192893400991
  0
LINE
  8
_0-1_
  6
CONTINUOUS
 62
    7
 10
127.75556000000005
 20
677.76192893400991
 11
127.60000000000002
 21
677.76192893400991
  0
LINE
  8
_0-1_
  6
CONTINUOUS
 62
    7
 10
127.60000000000002
 20
677.76192893400991
 11
127.55556000000001
 21
677.76192893400991
  0
LINE
  8
_0-1_
  6
CONTINUOUS
 62
    7
 10
127.55556000000001
 20
677.76192893400991
 11
127.05620999999985
 21
677.76192893400991
  0
LINE
  8
_0-1_
  6
CONTINUOUS
 62
    7
 10
127.05620999999985
 20
677.76192893400991
 11
126.79999999999995
 21
677.76192893400991
  0
LINE
  8
_0-1_
  6
CONTINUOUS
 62
    7
 10
126.79999999999995
 20
677.76192893400991
 11
126.29999999999995
 21
677.76192893400991
  0
LINE
  8
_0-1_
  6
CONTINUOUS
 62
    7
 10
126.29999999999995
 20
677.76192893400991
 11
126
 21
677.76192893400991
  0
LINE
  8
_0-1_
  6
CONTINUOUS
 62
    7
 10
126
 20
677.76192893400991
 11
125.39999999999997
 21
677.76192893400991
  0
LINE
  8
_0-1_
  6
CONTINUOUS
 62
    7
 10
125.39999999999997
 20
677.76192893400991
 11
125.39999999999997
 21
678.36192893401016
  0
LINE
  8
_0-1_
  6
CONTINUOUS
 62
    7
 10
125.39999999999997
 20
678.36192893401016
 11
126
 21
678.36192893401016
  0
LINE
  8
_0-1_
  6
CONTINUOUS
 62
    7
 10
126
 20
678.36192893401016
 11
126.29999999999995
 21
678.36192893401016
  0
LINE
  8
_0-1_
  6
CONTINUOUS
 62
    7
 10
126.29999999999995
 20
678.36192893401016
 11
126.79999999999995
 21
678.36192893401016
  0
LINE
  8
_0-1_
  6
CONTINUOUS
 62
    7
 10
126.79999999999995
 20
678.36192893401016
 11
127.05620999999985
 21
678.36192893401016
  0
LINE
  8
_0-1_
  6
CONTINUOUS
 62
    7
 10
127.05620999999985
 20
678.36192893401016
 11
127.55556000000001
 21
678.36192893401016
  0
LINE
  8
_0-1_
  6
CONTINUOUS
 62
    7
 10
127.55556000000001
 20
678.36192893401016
 11
127.60000000000002
 21
678.36192893401016
  0
LINE
  8
_0-1_
  6
CONTINUOUS
 62
    7
 10
127.60000000000002
 20
678.36192893401016
 11
127.75556000000005
 21
678.36192893401016
  0
LINE
  8
_0-1_
  6
CONTINUOUS
 62
    7
 10
127.75556000000005
 20
678.36192893401016
 11
128
 21
678.36192893401016
  0
LINE
  8
_0-1_
  6
CONTINUOUS
 62
    7
 10
128
 20
678.36192893401016
 11
128.25621000000001
 21
678.36192893401016
  0
LINE
  8
_0-1_
  6
CONTINUOUS
 62
    7
 10
128.25621000000001
 20
678.36192893401016
 11
128.60000000000002
 21
678.36192893401016
  0
LINE
  8
_0-1_
  6
CONTINUOUS
 62
    7
 10
128.60000000000002
 20
678.36192893401016
 11
130.70000000000004
 21
678.36192893401016
  0
ARC
  8
_0-1_
  6
CONTINUOUS
 62
    7
 10
130.70000067236765
 20
677.46192960637779
 40
0.8999993276325809
 50
359.99995719571279
 51
90.000042804286778
  0
LINE
  8
_0-1_
  6
CONTINUOUS
 62
    7
 10
131.60000000000002
 20
677.46192893401018
 11
131.60000000000002
 21
676.11748893400988
  0
LINE
  8
_0-1_
  6
CONTINUOUS
 62
    7
 10
131.60000000000002
 20
676.11748893400988
 11
131.60000000000002
 21
675.91748893401006
  0
LINE
  8
_0-1_
  6
CONTINUOUS
 62
    7
 10
131.60000000000002
 20
675.91748893401006
 11
131.60000000000002
 21
675.16192893401023
  0
LINE
  8
_0-1_
  6
CONTINUOUS
 62
    7
 10
131.60000000000002
 20
675.16192893401023
 11
131.60000000000002
 21
670.46192893401018
  0
LINE
  8
_0-1_
  6
CONTINUOUS
 62
    7
 10
131.60000000000002
 20
670.46192893401018
 11
131.60000000000002
 21
669.96192893401018
  0
LINE
  8
_0-1_
  6
CONTINUOUS
 62
    7
 10
131.60000000000002
 20
669.96192893401018
 11
131.60000000000002
 21
663.96192893401018
  0
LINE
  8
_0-1_
  6
CONTINUOUS
 62
    7
 10
131.60000000000002
 20
663.96192893401018
 11
131.60000000000002
 21
662.46192893401018
  0
LINE
  8
_0-1_
  6
CONTINUOUS
 62
    7
 10
131.60000000000002
 20
662.46192893401018
 11
131.60000000000002
 21
661.26192893400991
  0
LINE
  8
_0-1_
  6
CONTINUOUS
 62
    7
 10
131.60000000000002
 20
661.26192893400991
 11
131.60000000000002
 21
657.91748893401017
  0
LINE
  8
_0-1_
  6
CONTINUOUS
 62
    7
 10
131.60000000000002
 20
657.91748893401017
 11
131.60000000000002
 21
656.91748893401017
  0
LINE
  8
_0-1_
  6
CONTINUOUS
 62
    7
 10
131.60000000000002
 20
656.91748893401017
 11
131.60000000000002
 21
656.80914893400995
  0
LINE
  8
_0-1_
  6
CONTINUOUS
 62
    7
 10
131.60000000000002
 20
656.80914893400995
 11
131.60000000000002
 21
655.71192893401018
  0
ARC
  8
_0-1_
  6
CONTINUOUS
 62
    7
 10
131.74999988793865
 20
655.71192882194884
 40
0.1499998879387663
 50
179.99995719571435
 51
270.00004280428822
  0
ARC
  8
_0-1_
  6
CONTINUOUS
 62
    7
 10
131.75000011206134
 20
655.71192882194884
 40
0.1499998879387663
 50
269.99995719571177
 51
0.0000428042856409
  0
LINE
  8
_0-1_
  6
CONTINUOUS
 62
    7
 10
131.89999999999986
 20
655.71192893401018
 11
131.89999999999986
 21
656.80914893400995
  0
LINE
  8
_0-1_
  6
CONTINUOUS
 62
    7
 10
131.89999999999986
 20
656.80914893400995
 11
131.89999999999986
 21
656.91748893401017
  0
LINE
  8
_0-1_
  6
CONTINUOUS
 62
    7
 10
131.89999999999986
 20
656.91748893401017
 11
131.89999999999986
 21
657.91748893401017
  0
LINE
  8
_0-1_
  6
CONTINUOUS
 62
    7
 10
131.89999999999986
 20
657.91748893401017
 11
131.89999999999986
 21
659.66192893401023
  0
LINE
  8
_0-1_
  6
CONTINUOUS
 62
    7
 10
131.89999999999986
 20
659.66192893401023
 11
131.89999999999986
 21
661.26192893400991
  0
LINE
  8
_0-1_
  6
CONTINUOUS
 62
    7
 10
131.89999999999986
 20
661.26192893400991
 11
131.89999999999986
 21
662.46192893401018
  0
LINE
  8
_0-1_
  6
CONTINUOUS
 62
    7
 10
131.89999999999986
 20
662.46192893401018
 11
131.89999999999986
 21
663.96192893401018
  0
LINE
  8
_0-1_
  6
CONTINUOUS
 62
    7
 10
131.89999999999986
 20
663.96192893401018
 11
131.89999999999986
 21
669.96192893401018
  0
LINE
  8
_0-1_
  6
CONTINUOUS
 62
    7
 10
131.89999999999986
 20
669.96192893401018
 11
131.89999999999986
 21
670.46192893401018
  0
LINE
  8
_0-1_
  6
CONTINUOUS
 62
    7
 10
131.89999999999986
 20
670.46192893401018
 11
131.89999999999986
 21
680.16192893401023
  0
LINE
  8
_0-1_
  6
CONTINUOUS
 62
    7
 10
131.89999999999986
 20
680.16192893401023
 11
131.89999999999986
 21
686.26192893400991
  0
LINE
  8
_0-1_
  6
CONTINUOUS
 62
    7
 10
131.89999999999986
 20
686.26192893400991
 11
131.89999999999986
 21
687.46192893401018
  0
LINE
  8
_0-1_
  6
CONTINUOUS
 62
    7
 10
131.89999999999986
 20
687.46192893401018
 11
131.89999999999986
 21
693.91748893400983
  0
LINE
  8
_0-1_
  6
CONTINUOUS
 62
    7
 10
131.89999999999986
 20
693.91748893400983
 11
131.89999999999986
 21
698.91748893401017
  0
LINE
  8
_0-1_
  6
CONTINUOUS
 62
    7
 10
131.89999999999986
 20
698.91748893401017
 11
131.89999999999986
 21
700.11470893401019
  0
LINE
  8
_0-1_
  6
CONTINUOUS
 62
    7
 10
131.89999999999986
 20
700.11470893401019
 11
131.89999999999986
 21
701.21192893401018
  0
ARC
  8
_0-1_
  6
CONTINUOUS
 62
    7
 10
131.75000011206122
 20
701.21192904607153
 40
0.14999988793877
 50
359.99995719571302
 51
90.000042804286977
  0
ARC
  8
_0-1_
  6
CONTINUOUS
 62
    7
 10
131.74999988793865
 20
701.21192904607153
 40
0.14999988793877
 50
89.999957195713022
 51
180.00004280428686
  0
LINE
  8
_0-1_
  6
CONTINUOUS
 62
    7
 10
131.60000000000002
 20
701.21192893401018
 11
131.60000000000002
 21
700.11470893401019
  0
LINE
  8
_0-1_
  6
CONTINUOUS
 62
    7
 10
131.60000000000002
 20
700.11470893401019
 11
131.60000000000002
 21
698.91748893401017
  0
LINE
  8
_0-1_
  6
CONTINUOUS
 62
    7
 10
131.60000000000002
 20
698.91748893401017
 11
131.60000000000002
 21
693.91748893400983
  0
LINE
  8
_0-1_
  6
CONTINUOUS
 62
    7
 10
131.60000000000002
 20
693.91748893400983
 11
131.60000000000002
 21
687.46192893401018
  0
LINE
  8
_0-1_
  6
CONTINUOUS
 62
    7
 10
131.60000000000002
 20
687.46192893401018
 11
131.60000000000002
 21
686.26192893400991
  0
LINE
  8
_0-1_
  6
CONTINUOUS
 62
    7
 10
131.60000000000002
 20
686.26192893400991
 11
131.60000000000002
 21
682.36192893401016
  0
LINE
  8
_0-1_
  6
CONTINUOUS
 62
    7
 10
131.60000000000002
 20
682.36192893401016
 11
131.60000000000002
 21
680.26192893400991
  0
ARC
  8
_0-1_
  6
CONTINUOUS
 62
    7
 10
130.70000067236765
 20
680.26192826164242
 40
0.8999993276325809
 50
269.99995719571325
 51
0.0000428042872312
  0
LINE
  8
_0-1_
  6
CONTINUOUS
 62
    7
 10
130.70000000000004
 20
679.36192893401005
 11
128.60000000000002
 21
679.36192893401005
  0
LINE
  8
_0-1_
  6
CONTINUOUS
 62
    7
 10
128.60000000000002
 20
679.36192893401005
 11
128.25621000000001
 21
679.36192893401005
  0
LINE
  8
_0-1_
  6
CONTINUOUS
 62
    7
 10
128.25621000000001
 20
679.36192893401005
 11
128
 21
679.36192893401005
  0
LINE
  8
_0-1_
  6
CONTINUOUS
 62
    7
 10
128
 20
679.36192893401005
 11
127.75556000000005
 21
679.36192893401005
  0
LINE
  8
_0-1_
  6
CONTINUOUS
 62
    7
 10
127.75556000000005
 20
679.36192893401005
 11
127.60000000000002
 21
679.36192893401005
  0
LINE
  8
_0-1_
  6
CONTINUOUS
 62
    7
 10
127.60000000000002
 20
679.36192893401005
 11
127.55556000000001
 21
679.36192893401005
  0
LINE
  8
_0-1_
  6
CONTINUOUS
 62
    7
 10
127.55556000000001
 20
679.36192893401005
 11
127.05620999999985
 21
679.36192893401005
  0
LINE
  8
_0-1_
  6
CONTINUOUS
 62
    7
 10
127.05620999999985
 20
679.36192893401005
 11
126.79999999999995
 21
679.36192893401005
  0
LINE
  8
_0-1_
  6
CONTINUOUS
 62
    7
 10
126.79999999999995
 20
679.36192893401005
 11
126.29999999999995
 21
679.36192893401005
  0
LINE
  8
_0-1_
  6
CONTINUOUS
 62
    7
 10
126.29999999999995
 20
679.36192893401005
 11
126
 21
679.36192893401005
  0
LINE
  8
_0-1_
  6
CONTINUOUS
 62
    7
 10
126
 20
679.36192893401005
 11
125.39999999999997
 21
679.36192893401005
  0
LINE
  8
_0-1_
  6
CONTINUOUS
 62
    7
 10
125.39999999999997
 20
679.36192893401005
 11
125.39999999999997
 21
679.96192893401018
  0
LINE
  8
_0-1_
  6
CONTINUOUS
 62
    7
 10
125.39999999999997
 20
679.96192893401018
 11
126
 21
679.96192893401018
  0
LINE
  8
_0-1_
  6
CONTINUOUS
 62
    7
 10
126
 20
679.96192893401018
 11
126.29999999999995
 21
679.96192893401018
  0
LINE
  8
_0-1_
  6
CONTINUOUS
 62
    7
 10
126.29999999999995
 20
679.96192893401018
 11
126.79999999999995
 21
679.96192893401018
  0
LINE
  8
_0-1_
  6
CONTINUOUS
 62
    7
 10
126.79999999999995
 20
679.96192893401018
 11
127.05620999999985
 21
679.96192893401018
  0
LINE
  8
_0-1_
  6
CONTINUOUS
 62
    7
 10
127.05620999999985
 20
679.96192893401018
 11
127.55556000000001
 21
679.96192893401018
  0
LINE
  8
_0-1_
  6
CONTINUOUS
 62
    7
 10
127.55556000000001
 20
679.96192893401018
 11
127.60000000000002
 21
679.96192893401018
  0
LINE
  8
_0-1_
  6
CONTINUOUS
 62
    7
 10
127.60000000000002
 20
679.96192893401018
 11
127.75556000000005
 21
679.96192893401018
  0
LINE
  8
_0-1_
  6
CONTINUOUS
 62
    7
 10
127.75556000000005
 20
679.96192893401018
 11
128
 21
679.96192893401018
  0
LINE
  8
_0-1_
  6
CONTINUOUS
 62
    7
 10
128
 20
679.96192893401018
 11
128.25621000000001
 21
679.96192893401018
  0
LINE
  8
_0-1_
  6
CONTINUOUS
 62
    7
 10
128.25621000000001
 20
679.96192893401018
 11
128.60000000000002
 21
679.96192893401018
  0
LINE
  8
_0-1_
  6
CONTINUOUS
 62
    7
 10
128.60000000000002
 20
679.96192893401018
 11
130.70000000000004
 21
679.96192893401018
  0
ARC
  8
_0-1_
  6
CONTINUOUS
 62
    7
 10
130.7000002241225
 20
680.26192870988768
 40
0.2999997758775257
 50
269.99995719571302
 51
0.0000428042869768
  0
LINE
  8
_0-1_
  6
CONTINUOUS
 62
    7
 10
131
 20
680.26192893400991
 11
131
 21
682.36192893401016
  0
LINE
  8
_0-1_
  6
CONTINUOUS
 62
    7
 10
131
 20
682.36192893401016
 11
131
 21
686.26192893400991
  0
LINE
  8
_0-1_
  6
CONTINUOUS
 62
    7
 10
131
 20
686.26192893400991
 11
131
 21
687.46192893401018
  0
LINE
  8
_0-1_
  6
CONTINUOUS
 62
    7
 10
131
 20
687.46192893401018
 11
131
 21
693.91748893400983
  0
LINE
  8
_0-1_
  6
CONTINUOUS
 62
    7
 10
131
 20
693.91748893400983
 11
131
 21
698.91748893401017
  0
LINE
  8
_0-1_
  6
CONTINUOUS
 62
    7
 10
131
 20
698.91748893401017
 11
131
 21
700.11470893401019
  0
LINE
  8
_0-1_
  6
CONTINUOUS
 62
    7
 10
131
 20
700.11470893401019
 11
131
 21
701.21192893401018
  0
ARC
  8
_0-1_
  6
CONTINUOUS
 62
    7
 10
131.74999943969362
 20
701.21192949431656
 40
0.7499994396938216
 50
89.999957195713022
 51
180.00004280428686
  0
ARC
  8
_0-1_
  6
CONTINUOUS
 62
    7
 10
131.75001338508445
 20
701.21219225594938
 40
0.7497366781803195
 50
70.173813823145266
 51
90.001022904268722
  0
ARC
  8
_0-1_
  6
CONTINUOUS
 62
    7
 10
131.75001927583775
 20
701.21193071533662
 40
0.7499807241643637
 50
359.99986391317628
 51
70.181014007050336
  0
LINE
  8
_0-1_
  6
CONTINUOUS
 62
    7
 10
132.5
 20
701.21192893401018
 11
132.5
 21
700.11470893401019
  0
LINE
  8
_0-1_
  6
CONTINUOUS
 62
    7
 10
132.5
 20
700.11470893401019
 11
132.5
 21
698.91748893401017
  0
LINE
  8
_0-1_
  6
CONTINUOUS
 62
    7
 10
132.5
 20
698.91748893401017
 11
132.5
 21
693.91748893400983
  0
LINE
  8
_0-1_
  6
CONTINUOUS
 62
    7
 10
132.5
 20
693.91748893400983
 11
132.5
 21
687.46192893401018
  0
LINE
  8
_0-1_
  6
CONTINUOUS
 62
    7
 10
132.5
 20
687.46192893401018
 11
132.5
 21
686.26192893400991
  0
LINE
  8
_0-1_
  6
CONTINUOUS
 62
    7
 10
132.5
 20
686.26192893400991
 11
132.5
 21
680.16192893401023
  0
LINE
  8
_0-1_
  6
CONTINUOUS
 62
    7
 10
132.5
 20
680.16192893401023
 11
132.5
 21
670.46192893401018
  0
LINE
  8
_0-1_
  6
CONTINUOUS
 62
    7
 10
132.5
 20
670.46192893401018
 11
132.5
 21
669.96192893401018
  0
LINE
  8
_0-1_
  6
CONTINUOUS
 62
    7
 10
132.5
 20
669.96192893401018
 11
132.5
 21
663.96192893401018
  0
LINE
  8
_0-1_
  6
CONTINUOUS
 62
    7
 10
132.5
 20
663.96192893401018
 11
132.5
 21
662.46192893401018
  0
LINE
  8
_0-1_
  6
CONTINUOUS
 62
    7
 10
132.5
 20
662.46192893401018
 11
132.5
 21
661.26192893400991
  0
LINE
  8
_0-1_
  6
CONTINUOUS
 62
    7
 10
132.5
 20
661.26192893400991
 11
132.5
 21
659.66192893401023
  0
LINE
  8
_0-1_
  6
CONTINUOUS
 62
    7
 10
132.5
 20
659.66192893401023
 11
132.5
 21
657.91748893401017
  0
LINE
  8
_0-1_
  6
CONTINUOUS
 62
    7
 10
132.5
 20
657.91748893401017
 11
132.5
 21
656.91748893401017
  0
LINE
  8
_0-1_
  6
CONTINUOUS
 62
    7
 10
132.5
 20
656.91748893401017
 11
132.5
 21
656.80914893400995
  0
LINE
  8
_0-1_
  6
CONTINUOUS
 62
    7
 10
132.5
 20
656.80914893400995
 11
132.5
 21
655.71192893401018
  0
ARC
  8
_0-1_
  6
CONTINUOUS
 62
    7
 10
131.75001927583775
 20
655.71192715268364
 40
0.7499807241643591
 50
289.81898599294947
 51
0.0001360868235102
  0
ARC
  8
_0-1_
  6
CONTINUOUS
 62
    7
 10
131.74999999056535
 20
655.71174225982542
 40
0.7498133258155007
 50
270.00000072093666
 51
289.82516255165234
  0
ARC
  8
_0-1_
  6
CONTINUOUS
 62
    7
 10
131.74999943969362
 20
655.71192837370381
 40
0.7499994396938216
 50
179.99995719571299
 51
270.00004280428697
  0
LINE
  8
_0-1_
  6
CONTINUOUS
 62
    7
 10
131
 20
655.71192893401018
 11
131
 21
656.80914893400995
  0
LINE
  8
_0-1_
  6
CONTINUOUS
 62
    7
 10
131
 20
656.80914893400995
 11
131
 21
656.91748893401017
  0
LINE
  8
_0-1_
  6
CONTINUOUS
 62
    7
 10
131
 20
656.91748893401017
 11
131
 21
657.91748893401017
  0
LINE
  8
_0-1_
  6
CONTINUOUS
 62
    7
 10
131
 20
657.91748893401017
 11
131
 21
661.26192893400991
  0
LINE
  8
_0-1_
  6
CONTINUOUS
 62
    7
 10
131
 20
661.26192893400991
 11
131
 21
662.46192893401018
  0
LINE
  8
_0-1_
  6
CONTINUOUS
 62
    7
 10
131
 20
662.46192893401018
 11
131
 21
663.96192893401018
  0
LINE
  8
_0-1_
  6
CONTINUOUS
 62
    7
 10
131
 20
663.96192893401018
 11
131
 21
669.96192893401018
  0
LINE
  8
_0-1_
  6
CONTINUOUS
 62
    7
 10
131
 20
669.96192893401018
 11
131
 21
670.46192893401018
  0
LINE
  8
_0-1_
  6
CONTINUOUS
 62
    7
 10
131
 20
670.46192893401018
 11
131
 21
675.16192893401023
  0
LINE
  8
_0-1_
  6
CONTINUOUS
 62
    7
 10
131
 20
675.16192893401023
 11
131
 21
675.91748893401006
  0
LINE
  8
_0-1_
  6
CONTINUOUS
 62
    7
 10
130
 20
657.46192893401018
 11
130
 21
660.96192893400984
  0
LINE
  8
_0-1_
  6
CONTINUOUS
 62
    7
 10
129
 20
657.46192893401018
 11
130
 21
657.46192893401018
  0
LINE
  8
_0-1_
  6
CONTINUOUS
 62
    7
 10
127
 20
657.46192893401018
 11
129
 21
657.46192893401018
  0
LINE
  8
_0-1_
  6
CONTINUOUS
 62
    7
 10
126
 20
660.96192893400984
 11
126
 21
657.46192893401018
  0
LINE
  8
_0-1_
  6
CONTINUOUS
 62
    7
 10
126
 20
657.46192893401018
 11
127
 21
657.46192893401018
  0
LINE
  8
_0-1_
  6
CONTINUOUS
 62
    7
 10
124.45000000000004
 20
660.96192893400984
 11
131
 21
660.96192893400984
  0
POINT
  8
_0-4_
 62
    7
 10
180
 20
657.46192893401018
  0
POINT
  8
_0-4_
 62
    7
 10
180
 20
701.96192893401007
  0
LINE
  8
_0-4_
  6
CONTINUOUS
 62
    7
 10
180
 20
657.46192893401018
 11
160
 21
657.46192893401018
  0
LINE
  8
_0-4_
  6
CONTINUOUS
 62
    7
 10
180
 20
701.96192893401007
 11
160
 21
701.96192893401007
  0
LINE
  8
_0-4_
  6
CONTINUOUS
 62
    7
 10
180
 20
657.46192893401018
 11
180
 21
701.96192893401007
  0
TEXT
  8
_0-4_
 62
    7
 10
180
 20
662.21192893401007
 40
16
 41
1
 50
90
  1
44.5
  0
POINT
  8
_0-4_
 62
    7
 10
125.20000000000004
 20
707.46192893401018
  0
POINT
  8
_0-4_
 62
    7
 10
131
 20
707.46192893401018
  0
LINE
  8
_0-4_
  6
CONTINUOUS
 62
    7
 10
125.20000000000004
 20
707.46192893401018
 11
125.20000000000004
 21
687.46192893401018
  0
LINE
  8
_0-4_
  6
CONTINUOUS
 62
    7
 10
131
 20
707.46192893401018
 11
131
 21
687.46192893401018
  0
LINE
  8
_0-4_
  6
CONTINUOUS
 62
    7
 10
125.20000000000004
 20
707.46192893401018
 11
131
 21
707.46192893401018
  0
TEXT
  8
_0-4_
 62
    7
 10
115.10000000000002
 20
707.46192893401018
 40
16
 41
1
 50
0
  1
5.8
  0
POINT
  8
_0-4_
 62
    7
 10
132.5
 20
607.46192893401018
  0
POINT
  8
_0-4_
 62
    7
 10
123.70000000000004
 20
607.46192893401018
  0
LINE
  8
_0-4_
  6
CONTINUOUS
 62
    7
 10
132.5
 20
607.46192893401018
 11
132.5
 21
627.46192893401018
  0
LINE
  8
_0-4_
  6
CONTINUOUS
 62
    7
 10
123.70000000000004
 20
607.46192893401018
 11
123.70000000000004
 21
627.46192893401018
  0
LINE
  8
_0-4_
  6
CONTINUOUS
 62
    7
 10
132.5
 20
607.46192893401018
 11
123.70000000000004
 21
607.46192893401018
  0
TEXT
  8
_0-4_
 62
    7
 10
115.10000000000002
 20
607.46192893401018
 40
16
 41
1
 50
0
  1
8.8
  0
LINE
  8
_0-1_
  6
CONTINUOUS
 62
    7
 10
1527.3499999999999
 20
283.46192893400939
 11
1536.3499999999999
 21
283.46192893400939
  0
LINE
  8
_0-1_
  6
CONTINUOUS
 62
    7
 10
1536.3499999999999
 20
283.46192893400939
 11
1536.3499999999999
 21
279.46192893400939
  0
LINE
  8
_0-1_
  6
CONTINUOUS
 62
    7
 10
1536.3499999999999
 20
279.46192893400939
 11
1527.3499999999999
 21
279.46192893400939
  0
LINE
  8
_0-1_
  6
CONTINUOUS
 62
    7
 10
1527.3499999999999
 20
279.46192893400939
 11
1527.3499999999999
 21
283.46192893400939
  0
LINE
  8
_0-1_
  6
CONTINUOUS
 62
    7
 10
1538.8499999999999
 20
283.46192893400939
 11
1547.8499999999999
 21
283.46192893400939
  0
LINE
  8
_0-1_
  6
CONTINUOUS
 62
    7
 10
1547.8499999999999
 20
283.46192893400939
 11
1547.8499999999999
 21
279.46192893400939
  0
LINE
  8
_0-1_
  6
CONTINUOUS
 62
    7
 10
1547.8499999999999
 20
279.46192893400939
 11
1538.8499999999999
 21
279.46192893400939
  0
LINE
  8
_0-1_
  6
CONTINUOUS
 62
    7
 10
1538.8499999999999
 20
279.46192893400939
 11
1538.8499999999999
 21
283.46192893400939
  0
LINE
  8
_0-1_
  6
CONTINUOUS
 62
    7
 10
1550.3499999999999
 20
283.46192893400939
 11
1559.3499999999999
 21
283.46192893400939
  0
LINE
  8
_0-1_
  6
CONTINUOUS
 62
    7
 10
1559.3499999999999
 20
283.46192893400939
 11
1559.3499999999999
 21
279.46192893400939
  0
LINE
  8
_0-1_
  6
CONTINUOUS
 62
    7
 10
1559.3499999999999
 20
279.46192893400939
 11
1550.3499999999999
 21
279.46192893400939
  0
LINE
  8
_0-1_
  6
CONTINUOUS
 62
    7
 10
1550.3499999999999
 20
279.46192893400939
 11
1550.3499999999999
 21
283.46192893400939
  0
ARC
  8
_0-1_
  6
CONTINUOUS
 62
    7
 10
1561.4500008964901
 20
279.86192803751919
 40
1.199999103510116
 50
269.99995719571307
 51
0.0000428042870276
  0
LINE
  8
_0-1_
  6
CONTINUOUS
 62
    7
 10
1562.65
 20
279.86192893400937
 11
1562.65
 21
283.46192893400939
  0
LINE
  8
_0-1_
  6
CONTINUOUS
 62
    7
 10
1562.65
 20
283.46192893400939
 11
1561.8499999999999
 21
283.46192893400939
  0
LINE
  8
_0-1_
  6
CONTINUOUS
 62
    7
 10
1561.8499999999999
 20
283.46192893400939
 11
1561.8499999999999
 21
279.86192893400937
  0
ARC
  8
_0-1_
  6
CONTINUOUS
 62
    7
 10
1561.4500002988299
 20
279.86192863517931
 40
0.399999701170042
 50
269.99995719571325
 51
0.0000428042872312
  0
LINE
  8
_0-1_
  6
CONTINUOUS
 62
    7
 10
1561.45
 20
279.46192893400939
 11
1550.25
 21
279.46192893400939
  0
LINE
  8
_0-1_
  6
CONTINUOUS
 62
    7
 10
1550.25
 20
279.46192893400939
 11
1550.15
 21
279.46192893400939
  0
LINE
  8
_0-1_
  6
CONTINUOUS
 62
    7
 10
1550.15
 20
279.46192893400939
 11
1532.5
 21
279.46192893400939
  0
LINE
  8
_0-1_
  6
CONTINUOUS
 62
    7
 10
1532.5
 20
279.46192893400939
 11
1527.3499999999999
 21
279.46192893400939
  0
LINE
  8
_0-1_
  6
CONTINUOUS
 62
    7
 10
1527.3499999999999
 20
279.46192893400939
 11
1527.3499999999999
 21
278.66192893400949
  0
LINE
  8
_0-1_
  6
CONTINUOUS
 62
    7
 10
1527.3499999999999
 20
278.66192893400949
 11
1532.5
 21
278.66192893400949
  0
LINE
  8
_0-1_
  6
CONTINUOUS
 62
    7
 10
1532.5
 20
278.66192893400949
 11
1550.15
 21
278.66192893400949
  0
LINE
  8
_0-1_
  6
CONTINUOUS
 62
    7
 10
1550.15
 20
278.66192893400949
 11
1550.25
 21
278.66192893400949
  0
LINE
  8
_0-1_
  6
CONTINUOUS
 62
    7
 10
1550.25
 20
278.66192893400949
 11
1561.45
 21
278.66192893400949
  0
LINE
  8
_0-1_
  6
CONTINUOUS
 62
    7
 10
1527.5
 20
278.66192893400949
 11
1561.4500008964901
 21
278.66192893400949
  0
LINE
  8
_0-1_
  6
CONTINUOUS
 62
    7
 10
1536.150000000001
 20
305.16192893400938
 11
1536.150000000001
 21
304.56192893400941
  0
LINE
  8
_0-1_
  6
CONTINUOUS
 62
    7
 10
1536.150000000001
 20
304.56192893400941
 11
1535.5499999999999
 21
304.56192893400941
  0
LINE
  8
_0-1_
  6
CONTINUOUS
 62
    7
 10
1535.5499999999999
 20
304.56192893400941
 11
1535.25
 21
304.56192893400941
  0
LINE
  8
_0-1_
  6
CONTINUOUS
 62
    7
 10
1535.25
 20
304.56192893400941
 11
1534.75
 21
304.56192893400941
  0
LINE
  8
_0-1_
  6
CONTINUOUS
 62
    7
 10
1534.75
 20
304.56192893400941
 11
1533.7500000000009
 21
304.56192893400941
  0
LINE
  8
_0-1_
  6
CONTINUOUS
 62
    7
 10
1533.7500000000009
 20
304.56192893400941
 11
1533.606210000001
 21
304.56192893400941
  0
LINE
  8
_0-1_
  6
CONTINUOUS
 62
    7
 10
1533.606210000001
 20
304.56192893400941
 11
1533.15
 21
304.56192893400941
  0
LINE
  8
_0-1_
  6
CONTINUOUS
 62
    7
 10
1533.15
 20
304.56192893400941
 11
1533.1055599999999
 21
304.56192893400941
  0
LINE
  8
_0-1_
  6
CONTINUOUS
 62
    7
 10
1533.1055599999999
 20
304.56192893400941
 11
1532.95
 21
304.56192893400941
  0
LINE
  8
_0-1_
  6
CONTINUOUS
 62
    7
 10
1532.95
 20
304.56192893400941
 11
1532.9055599999999
 21
304.56192893400941
  0
LINE
  8
_0-1_
  6
CONTINUOUS
 62
    7
 10
1532.9055599999999
 20
304.56192893400941
 11
1532.4062100000001
 21
304.56192893400941
  0
LINE
  8
_0-1_
  6
CONTINUOUS
 62
    7
 10
1532.4062100000001
 20
304.56192893400941
 11
1530.8499999999999
 21
304.56192893400941
  0
ARC
  8
_0-1_
  6
CONTINUOUS
 62
    7
 10
1530.8499993276329
 20
305.46192826164178
 40
0.8999993276325879
 50
179.99995719571316
 51
270.0000428042872
  0
LINE
  8
_0-1_
  6
CONTINUOUS
 62
    7
 10
1529.95
 20
305.46192893400939
 11
1529.95
 21
306.91748893400938
  0
LINE
  8
_0-1_
  6
CONTINUOUS
 62
    7
 10
1529.95
 20
306.91748893400938
 11
1529.95
 21
307.56192893400941
  0
LINE
  8
_0-1_
  6
CONTINUOUS
 62
    7
 10
1529.95
 20
307.56192893400941
 11
1529.95
 21
308.22192893400938
  0
LINE
  8
_0-1_
  6
CONTINUOUS
 62
    7
 10
1529.95
 20
308.22192893400938
 11
1529.95
 21
308.42192893400937
  0
LINE
  8
_0-1_
  6
CONTINUOUS
 62
    7
 10
1529.95
 20
308.42192893400937
 11
1529.95
 21
309.02192893400939
  0
LINE
  8
_0-1_
  6
CONTINUOUS
 62
    7
 10
1529.95
 20
309.02192893400939
 11
1529.95
 21
311.2619289340094
  0
LINE
  8
_0-1_
  6
CONTINUOUS
 62
    7
 10
1529.95
 20
311.2619289340094
 11
1529.95
 21
317.2619289340094
  0
LINE
  8
_0-1_
  6
CONTINUOUS
 62
    7
 10
1529.95
 20
317.2619289340094
 11
1529.95
 21
318.46192893400939
  0
LINE
  8
_0-1_
  6
CONTINUOUS
 62
    7
 10
1529.95
 20
318.46192893400939
 11
1529.95
 21
320.46192893400939
  0
LINE
  8
_0-1_
  6
CONTINUOUS
 62
    7
 10
1529.95
 20
320.46192893400939
 11
1529.95
 21
321.66192893400938
  0
LINE
  8
_0-1_
  6
CONTINUOUS
 62
    7
 10
1529.95
 20
321.66192893400938
 11
1529.95
 21
323.91748893400938
  0
LINE
  8
_0-1_
  6
CONTINUOUS
 62
    7
 10
1529.95
 20
323.91748893400938
 11
1529.95
 21
325.91748893400938
  0
LINE
  8
_0-1_
  6
CONTINUOUS
 62
    7
 10
1529.95
 20
325.91748893400938
 11
1529.95
 21
326.11470893400939
  0
LINE
  8
_0-1_
  6
CONTINUOUS
 62
    7
 10
1529.95
 20
326.11470893400939
 11
1529.95
 21
327.21192893400939
  0
ARC
  8
_0-1_
  6
CONTINUOUS
 62
    7
 10
1529.8000001120619
 20
327.21192904607067
 40
0.1499998879387628
 50
359.99995719571029
 51
90.000042804284234
  0
ARC
  8
_0-1_
  6
CONTINUOUS
 62
    7
 10
1529.799999887939
 20
327.21192904607067
 40
0.14999988793877
 50
89.999957195713022
 51
180.00004280428686
  0
LINE
  8
_0-1_
  6
CONTINUOUS
 62
    7
 10
1529.65
 20
327.21192893400939
 11
1529.65
 21
326.11470893400939
  0
LINE
  8
_0-1_
  6
CONTINUOUS
 62
    7
 10
1529.65
 20
326.11470893400939
 11
1529.65
 21
325.91748893400938
  0
LINE
  8
_0-1_
  6
CONTINUOUS
 62
    7
 10
1529.65
 20
325.91748893400938
 11
1529.65
 21
323.2619289340094
  0
LINE
  8
_0-1_
  6
CONTINUOUS
 62
    7
 10
1529.65
 20
323.2619289340094
 11
1529.65
 21
321.66192893400938
  0
LINE
  8
_0-1_
  6
CONTINUOUS
 62
    7
 10
1529.65
 20
321.66192893400938
 11
1529.65
 21
320.46192893400939
  0
LINE
  8
_0-1_
  6
CONTINUOUS
 62
    7
 10
1529.65
 20
320.46192893400939
 11
1529.65
 21
318.46192893400939
  0
LINE
  8
_0-1_
  6
CONTINUOUS
 62
    7
 10
1529.65
 20
318.46192893400939
 11
1529.65
 21
317.2619289340094
  0
LINE
  8
_0-1_
  6
CONTINUOUS
 62
    7
 10
1529.65
 20
317.2619289340094
 11
1529.65
 21
311.2619289340094
  0
LINE
  8
_0-1_
  6
CONTINUOUS
 62
    7
 10
1529.65
 20
311.2619289340094
 11
1529.65
 21
302.7619289340094
  0
LINE
  8
_0-1_
  6
CONTINUOUS
 62
    7
 10
1529.65
 20
302.7619289340094
 11
1529.65
 21
296.66192893400938
  0
LINE
  8
_0-1_
  6
CONTINUOUS
 62
    7
 10
1529.65
 20
296.66192893400938
 11
1529.65
 21
295.96192893400939
  0
LINE
  8
_0-1_
  6
CONTINUOUS
 62
    7
 10
1529.65
 20
295.96192893400939
 11
1529.65
 21
295.46192893400939
  0
LINE
  8
_0-1_
  6
CONTINUOUS
 62
    7
 10
1529.65
 20
295.46192893400939
 11
1529.65
 21
294.66192893400938
  0
LINE
  8
_0-1_
  6
CONTINUOUS
 62
    7
 10
1529.65
 20
294.66192893400938
 11
1529.65
 21
293.66192893400949
  0
LINE
  8
_0-1_
  6
CONTINUOUS
 62
    7
 10
1529.65
 20
293.66192893400949
 11
1529.65
 21
289.91748893400938
  0
LINE
  8
_0-1_
  6
CONTINUOUS
 62
    7
 10
1529.65
 20
289.91748893400938
 11
1529.65
 21
288.91748893400938
  0
LINE
  8
_0-1_
  6
CONTINUOUS
 62
    7
 10
1529.65
 20
288.91748893400938
 11
1529.65
 21
288.80914893400938
  0
LINE
  8
_0-1_
  6
CONTINUOUS
 62
    7
 10
1529.65
 20
288.80914893400938
 11
1529.65
 21
287.71192893400939
  0
ARC
  8
_0-1_
  6
CONTINUOUS
 62
    7
 10
1529.799999887939
 20
287.71192882194799
 40
0.1499998879387663
 50
179.99995719571435
 51
270.00004280428822
  0
ARC
  8
_0-1_
  6
CONTINUOUS
 62
    7
 10
1529.8000001120619
 20
287.71192882194799
 40
0.1499998879387592
 50
269.99995719571438
 51
0.0000428042883508
  0
LINE
  8
_0-1_
  6
CONTINUOUS
 62
    7
 10
1529.95
 20
287.71192893400939
 11
1529.95
 21
288.80914893400938
  0
LINE
  8
_0-1_
  6
CONTINUOUS
 62
    7
 10
1529.95
 20
288.80914893400938
 11
1529.95
 21
288.91748893400938
  0
LINE
  8
_0-1_
  6
CONTINUOUS
 62
    7
 10
1529.95
 20
288.91748893400938
 11
1529.95
 21
289.91748893400938
  0
LINE
  8
_0-1_
  6
CONTINUOUS
 62
    7
 10
1529.95
 20
289.91748893400938
 11
1529.95
 21
293.66192893400949
  0
LINE
  8
_0-1_
  6
CONTINUOUS
 62
    7
 10
1529.95
 20
293.66192893400949
 11
1529.95
 21
294.66192893400938
  0
LINE
  8
_0-1_
  6
CONTINUOUS
 62
    7
 10
1529.95
 20
294.66192893400938
 11
1529.95
 21
295.46192893400939
  0
LINE
  8
_0-1_
  6
CONTINUOUS
 62
    7
 10
1529.95
 20
295.46192893400939
 11
1529.95
 21
295.96192893400939
  0
LINE
  8
_0-1_
  6
CONTINUOUS
 62
    7
 10
1529.95
 20
295.96192893400939
 11
1529.95
 21
296.66192893400938
  0
LINE
  8
_0-1_
  6
CONTINUOUS
 62
    7
 10
1529.95
 20
296.66192893400938
 11
1529.95
 21
300.56192893400941
  0
LINE
  8
_0-1_
  6
CONTINUOUS
 62
    7
 10
1529.95
 20
300.56192893400941
 11
1529.95
 21
302.66192893400938
  0
ARC
  8
_0-1_
  6
CONTINUOUS
 62
    7
 10
1530.8499993276329
 20
302.6619296063771
 40
0.8999993276325879
 50
89.999957195712795
 51
180.00004280428666
  0
LINE
  8
_0-1_
  6
CONTINUOUS
 62
    7
 10
1530.8499999999999
 20
303.56192893400941
 11
1532.4062100000001
 21
303.56192893400941
  0
LINE
  8
_0-1_
  6
CONTINUOUS
 62
    7
 10
1532.4062100000001
 20
303.56192893400941
 11
1532.9055599999999
 21
303.56192893400941
  0
LINE
  8
_0-1_
  6
CONTINUOUS
 62
    7
 10
1532.9055599999999
 20
303.56192893400941
 11
1532.95
 21
303.56192893400941
  0
LINE
  8
_0-1_
  6
CONTINUOUS
 62
    7
 10
1532.95
 20
303.56192893400941
 11
1533.1055599999999
 21
303.56192893400941
  0
LINE
  8
_0-1_
  6
CONTINUOUS
 62
    7
 10
1533.1055599999999
 20
303.56192893400941
 11
1533.15
 21
303.56192893400941
  0
LINE
  8
_0-1_
  6
CONTINUOUS
 62
    7
 10
1533.15
 20
303.56192893400941
 11
1533.606210000001
 21
303.56192893400941
  0
LINE
  8
_0-1_
  6
CONTINUOUS
 62
    7
 10
1533.606210000001
 20
303.56192893400941
 11
1533.7500000000009
 21
303.56192893400941
  0
LINE
  8
_0-1_
  6
CONTINUOUS
 62
    7
 10
1533.7500000000009
 20
303.56192893400941
 11
1534.75
 21
303.56192893400941
  0
LINE
  8
_0-1_
  6
CONTINUOUS
 62
    7
 10
1534.75
 20
303.56192893400941
 11
1535.25
 21
303.56192893400941
  0
LINE
  8
_0-1_
  6
CONTINUOUS
 62
    7
 10
1535.25
 20
303.56192893400941
 11
1535.5499999999999
 21
303.56192893400941
  0
LINE
  8
_0-1_
  6
CONTINUOUS
 62
    7
 10
1535.5499999999999
 20
303.56192893400941
 11
1536.150000000001
 21
303.56192893400941
  0
LINE
  8
_0-1_
  6
CONTINUOUS
 62
    7
 10
1536.150000000001
 20
303.56192893400941
 11
1536.150000000001
 21
302.96192893400939
  0
LINE
  8
_0-1_
  6
CONTINUOUS
 62
    7
 10
1536.150000000001
 20
302.96192893400939
 11
1535.5499999999999
 21
302.96192893400939
  0
LINE
  8
_0-1_
  6
CONTINUOUS
 62
    7
 10
1535.5499999999999
 20
302.96192893400939
 11
1535.25
 21
302.96192893400939
  0
LINE
  8
_0-1_
  6
CONTINUOUS
 62
    7
 10
1535.25
 20
302.96192893400939
 11
1534.75
 21
302.96192893400939
  0
LINE
  8
_0-1_
  6
CONTINUOUS
 62
    7
 10
1534.75
 20
302.96192893400939
 11
1533.7500000000009
 21
302.96192893400939
  0
LINE
  8
_0-1_
  6
CONTINUOUS
 62
    7
 10
1533.7500000000009
 20
302.96192893400939
 11
1533.606210000001
 21
302.96192893400939
  0
LINE
  8
_0-1_
  6
CONTINUOUS
 62
    7
 10
1533.606210000001
 20
302.96192893400939
 11
1533.15
 21
302.96192893400939
  0
LINE
  8
_0-1_
  6
CONTINUOUS
 62
    7
 10
1533.15
 20
302.96192893400939
 11
1533.1055599999999
 21
302.96192893400939
  0
LINE
  8
_0-1_
  6
CONTINUOUS
 62
    7
 10
1533.1055599999999
 20
302.96192893400939
 11
1532.95
 21
302.96192893400939
  0
LINE
  8
_0-1_
  6
CONTINUOUS
 62
    7
 10
1532.95
 20
302.96192893400939
 11
1532.9055599999999
 21
302.96192893400939
  0
LINE
  8
_0-1_
  6
CONTINUOUS
 62
    7
 10
1532.9055599999999
 20
302.96192893400939
 11
1532.4062100000001
 21
302.96192893400939
  0
LINE
  8
_0-1_
  6
CONTINUOUS
 62
    7
 10
1532.4062100000001
 20
302.96192893400939
 11
1530.8499999999999
 21
302.96192893400939
  0
ARC
  8
_0-1_
  6
CONTINUOUS
 62
    7
 10
1530.8499997758769
 20
302.66192915813189
 40
0.2999997758775257
 50
89.999957195713022
 51
180.00004280428686
  0
LINE
  8
_0-1_
  6
CONTINUOUS
 62
    7
 10
1530.5499999999999
 20
302.66192893400938
 11
1530.5499999999999
 21
300.56192893400941
  0
LINE
  8
_0-1_
  6
CONTINUOUS
 62
    7
 10
1530.5499999999999
 20
300.56192893400941
 11
1530.5499999999999
 21
296.66192893400938
  0
LINE
  8
_0-1_
  6
CONTINUOUS
 62
    7
 10
1530.5499999999999
 20
296.66192893400938
 11
1530.5499999999999
 21
295.96192893400939
  0
LINE
  8
_0-1_
  6
CONTINUOUS
 62
    7
 10
1530.5499999999999
 20
295.96192893400939
 11
1530.5499999999999
 21
295.46192893400939
  0
LINE
  8
_0-1_
  6
CONTINUOUS
 62
    7
 10
1530.5499999999999
 20
295.46192893400939
 11
1530.5499999999999
 21
294.66192893400938
  0
LINE
  8
_0-1_
  6
CONTINUOUS
 62
    7
 10
1530.5499999999999
 20
294.66192893400938
 11
1530.5499999999999
 21
293.66192893400949
  0
LINE
  8
_0-1_
  6
CONTINUOUS
 62
    7
 10
1530.5499999999999
 20
293.66192893400949
 11
1530.5499999999999
 21
289.91748893400938
  0
LINE
  8
_0-1_
  6
CONTINUOUS
 62
    7
 10
1530.5499999999999
 20
289.91748893400938
 11
1530.5499999999999
 21
288.91748893400938
  0
LINE
  8
_0-1_
  6
CONTINUOUS
 62
    7
 10
1530.5499999999999
 20
288.91748893400938
 11
1530.5499999999999
 21
288.80914893400938
  0
LINE
  8
_0-1_
  6
CONTINUOUS
 62
    7
 10
1530.5499999999999
 20
288.80914893400938
 11
1530.5499999999999
 21
287.71192893400939
  0
ARC
  8
_0-1_
  6
CONTINUOUS
 62
    7
 10
1529.8000192758379
 20
287.7119271526829
 40
0.7499807241643591
 50
289.81898599294947
 51
0.0001360868235102
  0
ARC
  8
_0-1_
  6
CONTINUOUS
 62
    7
 10
1529.799999990565
 20
287.71174225982491
 40
0.7498133258155007
 50
270.00000072093666
 51
289.82516255165234
  0
ARC
  8
_0-1_
  6
CONTINUOUS
 62
    7
 10
1529.7999994396939
 20
287.71192837370296
 40
0.7499994396938216
 50
179.99995719571299
 51
270.00004280428697
  0
LINE
  8
_0-1_
  6
CONTINUOUS
 62
    7
 10
1529.0499999999999
 20
287.71192893400939
 11
1529.0499999999999
 21
288.80914893400938
  0
LINE
  8
_0-1_
  6
CONTINUOUS
 62
    7
 10
1529.0499999999999
 20
288.80914893400938
 11
1529.0499999999999
 21
288.91748893400938
  0
LINE
  8
_0-1_
  6
CONTINUOUS
 62
    7
 10
1529.0499999999999
 20
288.91748893400938
 11
1529.0499999999999
 21
289.91748893400938
  0
LINE
  8
_0-1_
  6
CONTINUOUS
 62
    7
 10
1529.0499999999999
 20
289.91748893400938
 11
1529.0499999999999
 21
293.66192893400949
  0
LINE
  8
_0-1_
  6
CONTINUOUS
 62
    7
 10
1529.0499999999999
 20
293.66192893400949
 11
1529.0499999999999
 21
294.66192893400938
  0
LINE
  8
_0-1_
  6
CONTINUOUS
 62
    7
 10
1529.0499999999999
 20
294.66192893400938
 11
1529.0499999999999
 21
295.46192893400939
  0
LINE
  8
_0-1_
  6
CONTINUOUS
 62
    7
 10
1529.0499999999999
 20
295.46192893400939
 11
1529.0499999999999
 21
295.96192893400939
  0
LINE
  8
_0-1_
  6
CONTINUOUS
 62
    7
 10
1529.0499999999999
 20
295.96192893400939
 11
1529.0499999999999
 21
296.66192893400938
  0
LINE
  8
_0-1_
  6
CONTINUOUS
 62
    7
 10
1529.0499999999999
 20
296.66192893400938
 11
1529.0499999999999
 21
302.7619289340094
  0
LINE
  8
_0-1_
  6
CONTINUOUS
 62
    7
 10
1529.0499999999999
 20
302.7619289340094
 11
1529.0499999999999
 21
311.2619289340094
  0
LINE
  8
_0-1_
  6
CONTINUOUS
 62
    7
 10
1529.0499999999999
 20
311.2619289340094
 11
1529.0499999999999
 21
317.2619289340094
  0
LINE
  8
_0-1_
  6
CONTINUOUS
 62
    7
 10
1529.0499999999999
 20
317.2619289340094
 11
1529.0499999999999
 21
318.46192893400939
  0
LINE
  8
_0-1_
  6
CONTINUOUS
 62
    7
 10
1529.0499999999999
 20
318.46192893400939
 11
1529.0499999999999
 21
320.46192893400939
  0
LINE
  8
_0-1_
  6
CONTINUOUS
 62
    7
 10
1529.0499999999999
 20
320.46192893400939
 11
1529.0499999999999
 21
321.66192893400938
  0
LINE
  8
_0-1_
  6
CONTINUOUS
 62
    7
 10
1529.0499999999999
 20
321.66192893400938
 11
1529.0499999999999
 21
323.2619289340094
  0
LINE
  8
_0-1_
  6
CONTINUOUS
 62
    7
 10
1529.0499999999999
 20
323.2619289340094
 11
1529.0499999999999
 21
325.91748893400938
  0
LINE
  8
_0-1_
  6
CONTINUOUS
 62
    7
 10
1529.0499999999999
 20
325.91748893400938
 11
1529.0499999999999
 21
326.11470893400939
  0
LINE
  8
_0-1_
  6
CONTINUOUS
 62
    7
 10
1529.0499999999999
 20
326.11470893400939
 11
1529.0499999999999
 21
327.21192893400939
  0
ARC
  8
_0-1_
  6
CONTINUOUS
 62
    7
 10
1529.7999994396939
 20
327.21192949431576
 40
0.7499994396938216
 50
89.999957195713022
 51
180.00004280428686
  0
ARC
  8
_0-1_
  6
CONTINUOUS
 62
    7
 10
1529.800013385085
 20
327.21219225594859
 40
0.7497366781803195
 50
70.173813823145266
 51
90.001022904268722
  0
ARC
  8
_0-1_
  6
CONTINUOUS
 62
    7
 10
1529.8000192758379
 20
327.21193071533588
 40
0.7499807241643637
 50
359.99986391317628
 51
70.181014007050336
  0
LINE
  8
_0-1_
  6
CONTINUOUS
 62
    7
 10
1530.5499999999999
 20
327.21192893400939
 11
1530.5499999999999
 21
326.11470893400939
  0
LINE
  8
_0-1_
  6
CONTINUOUS
 62
    7
 10
1530.5499999999999
 20
326.11470893400939
 11
1530.5499999999999
 21
325.91748893400938
  0
LINE
  8
_0-1_
  6
CONTINUOUS
 62
    7
 10
1530.5499999999999
 20
325.91748893400938
 11
1530.5499999999999
 21
323.91748893400938
  0
LINE
  8
_0-1_
  6
CONTINUOUS
 62
    7
 10
1530.5499999999999
 20
323.91748893400938
 11
1530.5499999999999
 21
321.66192893400938
  0
LINE
  8
_0-1_
  6
CONTINUOUS
 62
    7
 10
1530.5499999999999
 20
321.66192893400938
 11
1530.5499999999999
 21
320.46192893400939
  0
LINE
  8
_0-1_
  6
CONTINUOUS
 62
    7
 10
1530.5499999999999
 20
320.46192893400939
 11
1530.5499999999999
 21
318.46192893400939
  0
LINE
  8
_0-1_
  6
CONTINUOUS
 62
    7
 10
1530.5499999999999
 20
318.46192893400939
 11
1530.5499999999999
 21
317.2619289340094
  0
LINE
  8
_0-1_
  6
CONTINUOUS
 62
    7
 10
1530.5499999999999
 20
317.2619289340094
 11
1530.5499999999999
 21
311.2619289340094
  0
LINE
  8
_0-1_
  6
CONTINUOUS
 62
    7
 10
1530.5499999999999
 20
311.2619289340094
 11
1530.5499999999999
 21
309.02192893400939
  0
LINE
  8
_0-1_
  6
CONTINUOUS
 62
    7
 10
1530.5499999999999
 20
309.02192893400939
 11
1530.5499999999999
 21
308.42192893400937
  0
LINE
  8
_0-1_
  6
CONTINUOUS
 62
    7
 10
1530.5499999999999
 20
308.42192893400937
 11
1530.5499999999999
 21
308.22192893400938
  0
LINE
  8
_0-1_
  6
CONTINUOUS
 62
    7
 10
1530.5499999999999
 20
308.22192893400938
 11
1530.5499999999999
 21
307.56192893400941
  0
LINE
  8
_0-1_
  6
CONTINUOUS
 62
    7
 10
1530.5499999999999
 20
307.56192893400941
 11
1530.5499999999999
 21
306.91748893400938
  0
LINE
  8
_0-1_
  6
CONTINUOUS
 62
    7
 10
1530.5499999999999
 20
306.91748893400938
 11
1530.5499999999999
 21
305.46192893400939
  0
ARC
  8
_0-1_
  6
CONTINUOUS
 62
    7
 10
1530.8499997758769
 20
305.46192870988676
 40
0.2999997758775257
 50
179.99995719571299
 51
270.00004280428697
  0
LINE
  8
_0-1_
  6
CONTINUOUS
 62
    7
 10
1530.8499999999999
 20
305.16192893400938
 11
1532.4062100000001
 21
305.16192893400938
  0
LINE
  8
_0-1_
  6
CONTINUOUS
 62
    7
 10
1532.4062100000001
 20
305.16192893400938
 11
1532.9055599999999
 21
305.16192893400938
  0
LINE
  8
_0-1_
  6
CONTINUOUS
 62
    7
 10
1532.9055599999999
 20
305.16192893400938
 11
1532.95
 21
305.16192893400938
  0
LINE
  8
_0-1_
  6
CONTINUOUS
 62
    7
 10
1532.95
 20
305.16192893400938
 11
1533.1055599999999
 21
305.16192893400938
  0
LINE
  8
_0-1_
  6
CONTINUOUS
 62
    7
 10
1533.1055599999999
 20
305.16192893400938
 11
1533.15
 21
305.16192893400938
  0
LINE
  8
_0-1_
  6
CONTINUOUS
 62
    7
 10
1533.15
 20
305.16192893400938
 11
1533.606210000001
 21
305.16192893400938
  0
LINE
  8
_0-1_
  6
CONTINUOUS
 62
    7
 10
1533.606210000001
 20
305.16192893400938
 11
1533.7500000000009
 21
305.16192893400938
  0
LINE
  8
_0-1_
  6
CONTINUOUS
 62
    7
 10
1533.7500000000009
 20
305.16192893400938
 11
1534.75
 21
305.16192893400938
  0
LINE
  8
_0-1_
  6
CONTINUOUS
 62
    7
 10
1534.75
 20
305.16192893400938
 11
1535.25
 21
305.16192893400938
  0
LINE
  8
_0-1_
  6
CONTINUOUS
 62
    7
 10
1535.25
 20
305.16192893400938
 11
1535.5499999999999
 21
305.16192893400938
  0
LINE
  8
_0-1_
  6
CONTINUOUS
 62
    7
 10
1535.5499999999999
 20
305.16192893400938
 11
1536.150000000001
 21
305.16192893400938
  0
LINE
  8
_0-1_
  6
CONTINUOUS
 62
    7
 10
1536.3499999999999
 20
301.91748893400938
 11
1536.3499999999999
 21
302.11748893400937
  0
LINE
  8
_0-1_
  6
CONTINUOUS
 62
    7
 10
1536.3499999999999
 20
302.11748893400937
 11
1536.3499999999999
 21
303.46192893400939
  0
ARC
  8
_0-1_
  6
CONTINUOUS
 62
    7
 10
1536.0500002241219
 20
303.4619291581319
 40
0.2999997758775257
 50
359.99995719571302
 51
90.000042804286977
  0
LINE
  8
_0-1_
  6
CONTINUOUS
 62
    7
 10
1536.0499999999999
 20
303.7619289340094
 11
1533.95
 21
303.7619289340094
  0
LINE
  8
_0-1_
  6
CONTINUOUS
 62
    7
 10
1533.95
 20
303.7619289340094
 11
1533.606210000001
 21
303.7619289340094
  0
LINE
  8
_0-1_
  6
CONTINUOUS
 62
    7
 10
1533.606210000001
 20
303.7619289340094
 11
1533.3499999999999
 21
303.7619289340094
  0
LINE
  8
_0-1_
  6
CONTINUOUS
 62
    7
 10
1533.3499999999999
 20
303.7619289340094
 11
1533.1055599999999
 21
303.7619289340094
  0
LINE
  8
_0-1_
  6
CONTINUOUS
 62
    7
 10
1533.1055599999999
 20
303.7619289340094
 11
1532.95
 21
303.7619289340094
  0
LINE
  8
_0-1_
  6
CONTINUOUS
 62
    7
 10
1532.95
 20
303.7619289340094
 11
1532.9055599999999
 21
303.7619289340094
  0
LINE
  8
_0-1_
  6
CONTINUOUS
 62
    7
 10
1532.9055599999999
 20
303.7619289340094
 11
1532.4062100000001
 21
303.7619289340094
  0
LINE
  8
_0-1_
  6
CONTINUOUS
 62
    7
 10
1532.4062100000001
 20
303.7619289340094
 11
1532.15
 21
303.7619289340094
  0
LINE
  8
_0-1_
  6
CONTINUOUS
 62
    7
 10
1532.15
 20
303.7619289340094
 11
1531.65
 21
303.7619289340094
  0
LINE
  8
_0-1_
  6
CONTINUOUS
 62
    7
 10
1531.65
 20
303.7619289340094
 11
1531.3499999999999
 21
303.7619289340094
  0
LINE
  8
_0-1_
  6
CONTINUOUS
 62
    7
 10
1531.3499999999999
 20
303.7619289340094
 11
1530.75
 21
303.7619289340094
  0
LINE
  8
_0-1_
  6
CONTINUOUS
 62
    7
 10
1530.75
 20
303.7619289340094
 11
1530.75
 21
304.36192893400937
  0
LINE
  8
_0-1_
  6
CONTINUOUS
 62
    7
 10
1530.75
 20
304.36192893400937
 11
1531.3499999999999
 21
304.36192893400937
  0
LINE
  8
_0-1_
  6
CONTINUOUS
 62
    7
 10
1531.3499999999999
 20
304.36192893400937
 11
1531.65
 21
304.36192893400937
  0
LINE
  8
_0-1_
  6
CONTINUOUS
 62
    7
 10
1531.65
 20
304.36192893400937
 11
1532.15
 21
304.36192893400937
  0
LINE
  8
_0-1_
  6
CONTINUOUS
 62
    7
 10
1532.15
 20
304.36192893400937
 11
1532.4062100000001
 21
304.36192893400937
  0
LINE
  8
_0-1_
  6
CONTINUOUS
 62
    7
 10
1532.4062100000001
 20
304.36192893400937
 11
1532.9055599999999
 21
304.36192893400937
  0
LINE
  8
_0-1_
  6
CONTINUOUS
 62
    7
 10
1532.9055599999999
 20
304.36192893400937
 11
1532.95
 21
304.36192893400937
  0
LINE
  8
_0-1_
  6
CONTINUOUS
 62
    7
 10
1532.95
 20
304.36192893400937
 11
1533.1055599999999
 21
304.36192893400937
  0
LINE
  8
_0-1_
  6
CONTINUOUS
 62
    7
 10
1533.1055599999999
 20
304.36192893400937
 11
1533.3499999999999
 21
304.36192893400937
  0
LINE
  8
_0-1_
  6
CONTINUOUS
 62
    7
 10
1533.3499999999999
 20
304.36192893400937
 11
1533.606210000001
 21
304.36192893400937
  0
LINE
  8
_0-1_
  6
CONTINUOUS
 62
    7
 10
1533.606210000001
 20
304.36192893400937
 11
1533.95
 21
304.36192893400937
  0
LINE
  8
_0-1_
  6
CONTINUOUS
 62
    7
 10
1533.95
 20
304.36192893400937
 11
1536.0499999999999
 21
304.36192893400937
  0
ARC
  8
_0-1_
  6
CONTINUOUS
 62
    7
 10
1536.050000672368
 20
303.46192960637699
 40
0.8999993276325809
 50
359.99995719571279
 51
90.000042804286778
  0
LINE
  8
_0-1_
  6
CONTINUOUS
 62
    7
 10
1536.95
 20
303.46192893400939
 11
1536.95
 21
302.11748893400937
  0
LINE
  8
_0-1_
  6
CONTINUOUS
 62
    7
 10
1536.95
 20
302.11748893400937
 11
1536.95
 21
301.91748893400938
  0
LINE
  8
_0-1_
  6
CONTINUOUS
 62
    7
 10
1536.95
 20
301.91748893400938
 11
1536.95
 21
301.16192893400949
  0
LINE
  8
_0-1_
  6
CONTINUOUS
 62
    7
 10
1536.95
 20
301.16192893400949
 11
1536.95
 21
296.46192893400939
  0
LINE
  8
_0-1_
  6
CONTINUOUS
 62
    7
 10
1536.95
 20
296.46192893400939
 11
1536.95
 21
295.96192893400939
  0
LINE
  8
_0-1_
  6
CONTINUOUS
 62
    7
 10
1536.95
 20
295.96192893400939
 11
1536.95
 21
289.96192893400939
  0
LINE
  8
_0-1_
  6
CONTINUOUS
 62
    7
 10
1536.95
 20
289.96192893400939
 11
1536.95
 21
288.46192893400939
  0
LINE
  8
_0-1_
  6
CONTINUOUS
 62
    7
 10
1536.95
 20
288.46192893400939
 11
1536.95
 21
287.2619289340094
  0
LINE
  8
_0-1_
  6
CONTINUOUS
 62
    7
 10
1536.95
 20
287.2619289340094
 11
1536.95
 21
283.91748893400938
  0
LINE
  8
_0-1_
  6
CONTINUOUS
 62
    7
 10
1536.95
 20
283.91748893400938
 11
1536.95
 21
282.91748893400938
  0
LINE
  8
_0-1_
  6
CONTINUOUS
 62
    7
 10
1536.95
 20
282.91748893400938
 11
1536.95
 21
282.80914893400938
  0
LINE
  8
_0-1_
  6
CONTINUOUS
 62
    7
 10
1536.95
 20
282.80914893400938
 11
1536.95
 21
281.71192893400939
  0
ARC
  8
_0-1_
  6
CONTINUOUS
 62
    7
 10
1537.099999887939
 20
281.7119288219481
 40
0.1499998879387663
 50
179.99995719571435
 51
270.00004280428822
  0
ARC
  8
_0-1_
  6
CONTINUOUS
 62
    7
 10
1537.1000001120619
 20
281.7119288219481
 40
0.1499998879387663
 50
269.99995719571177
 51
0.0000428042856409
  0
LINE
  8
_0-1_
  6
CONTINUOUS
 62
    7
 10
1537.2500000000009
 20
281.71192893400939
 11
1537.2500000000009
 21
282.80914893400938
  0
LINE
  8
_0-1_
  6
CONTINUOUS
 62
    7
 10
1537.2500000000009
 20
282.80914893400938
 11
1537.2500000000009
 21
282.91748893400938
  0
LINE
  8
_0-1_
  6
CONTINUOUS
 62
    7
 10
1537.2500000000009
 20
282.91748893400938
 11
1537.2500000000009
 21
283.91748893400938
  0
LINE
  8
_0-1_
  6
CONTINUOUS
 62
    7
 10
1537.2500000000009
 20
283.91748893400938
 11
1537.2500000000009
 21
285.66192893400949
  0
LINE
  8
_0-1_
  6
CONTINUOUS
 62
    7
 10
1537.2500000000009
 20
285.66192893400949
 11
1537.2500000000009
 21
287.2619289340094
  0
LINE
  8
_0-1_
  6
CONTINUOUS
 62
    7
 10
1537.2500000000009
 20
287.2619289340094
 11
1537.2500000000009
 21
288.46192893400939
  0
LINE
  8
_0-1_
  6
CONTINUOUS
 62
    7
 10
1537.2500000000009
 20
288.46192893400939
 11
1537.2500000000009
 21
289.96192893400939
  0
LINE
  8
_0-1_
  6
CONTINUOUS
 62
    7
 10
1537.2500000000009
 20
289.96192893400939
 11
1537.2500000000009
 21
295.96192893400939
  0
LINE
  8
_0-1_
  6
CONTINUOUS
 62
    7
 10
1537.2500000000009
 20
295.96192893400939
 11
1537.2500000000009
 21
296.46192893400939
  0
LINE
  8
_0-1_
  6
CONTINUOUS
 62
    7
 10
1537.2500000000009
 20
296.46192893400939
 11
1537.2500000000009
 21
306.16192893400949
  0
LINE
  8
_0-1_
  6
CONTINUOUS
 62
    7
 10
1537.2500000000009
 20
306.16192893400949
 11
1537.2500000000009
 21
312.2619289340094
  0
LINE
  8
_0-1_
  6
CONTINUOUS
 62
    7
 10
1537.2500000000009
 20
312.2619289340094
 11
1537.2500000000009
 21
313.46192893400939
  0
LINE
  8
_0-1_
  6
CONTINUOUS
 62
    7
 10
1537.2500000000009
 20
313.46192893400939
 11
1537.2500000000009
 21
319.91748893400938
  0
LINE
  8
_0-1_
  6
CONTINUOUS
 62
    7
 10
1537.2500000000009
 20
319.91748893400938
 11
1537.2500000000009
 21
324.91748893400938
  0
LINE
  8
_0-1_
  6
CONTINUOUS
 62
    7
 10
1537.2500000000009
 20
324.91748893400938
 11
1537.2500000000009
 21
326.11470893400939
  0
LINE
  8
_0-1_
  6
CONTINUOUS
 62
    7
 10
1537.2500000000009
 20
326.11470893400939
 11
1537.2500000000009
 21
327.21192893400939
  0
ARC
  8
_0-1_
  6
CONTINUOUS
 62
    7
 10
1537.100000112061
 20
327.21192904607067
 40
0.14999988793877
 50
359.99995719571302
 51
90.000042804286977
  0
ARC
  8
_0-1_
  6
CONTINUOUS
 62
    7
 10
1537.099999887939
 20
327.21192904607067
 40
0.14999988793877
 50
89.999957195713022
 51
180.00004280428686
  0
LINE
  8
_0-1_
  6
CONTINUOUS
 62
    7
 10
1536.95
 20
327.21192893400939
 11
1536.95
 21
326.11470893400939
  0
LINE
  8
_0-1_
  6
CONTINUOUS
 62
    7
 10
1536.95
 20
326.11470893400939
 11
1536.95
 21
324.91748893400938
  0
LINE
  8
_0-1_
  6
CONTINUOUS
 62
    7
 10
1536.95
 20
324.91748893400938
 11
1536.95
 21
319.91748893400938
  0
LINE
  8
_0-1_
  6
CONTINUOUS
 62
    7
 10
1536.95
 20
319.91748893400938
 11
1536.95
 21
313.46192893400939
  0
LINE
  8
_0-1_
  6
CONTINUOUS
 62
    7
 10
1536.95
 20
313.46192893400939
 11
1536.95
 21
312.2619289340094
  0
LINE
  8
_0-1_
  6
CONTINUOUS
 62
    7
 10
1536.95
 20
312.2619289340094
 11
1536.95
 21
308.36192893400937
  0
LINE
  8
_0-1_
  6
CONTINUOUS
 62
    7
 10
1536.95
 20
308.36192893400937
 11
1536.95
 21
306.2619289340094
  0
ARC
  8
_0-1_
  6
CONTINUOUS
 62
    7
 10
1536.050000672368
 20
306.26192826164179
 40
0.8999993276325809
 50
269.99995719571325
 51
0.0000428042872312
  0
LINE
  8
_0-1_
  6
CONTINUOUS
 62
    7
 10
1536.0499999999999
 20
305.36192893400937
 11
1533.95
 21
305.36192893400937
  0
LINE
  8
_0-1_
  6
CONTINUOUS
 62
    7
 10
1533.95
 20
305.36192893400937
 11
1533.606210000001
 21
305.36192893400937
  0
LINE
  8
_0-1_
  6
CONTINUOUS
 62
    7
 10
1533.606210000001
 20
305.36192893400937
 11
1533.3499999999999
 21
305.36192893400937
  0
LINE
  8
_0-1_
  6
CONTINUOUS
 62
    7
 10
1533.3499999999999
 20
305.36192893400937
 11
1533.1055599999999
 21
305.36192893400937
  0
LINE
  8
_0-1_
  6
CONTINUOUS
 62
    7
 10
1533.1055599999999
 20
305.36192893400937
 11
1532.95
 21
305.36192893400937
  0
LINE
  8
_0-1_
  6
CONTINUOUS
 62
    7
 10
1532.95
 20
305.36192893400937
 11
1532.9055599999999
 21
305.36192893400937
  0
LINE
  8
_0-1_
  6
CONTINUOUS
 62
    7
 10
1532.9055599999999
 20
305.36192893400937
 11
1532.4062100000001
 21
305.36192893400937
  0
LINE
  8
_0-1_
  6
CONTINUOUS
 62
    7
 10
1532.4062100000001
 20
305.36192893400937
 11
1532.15
 21
305.36192893400937
  0
LINE
  8
_0-1_
  6
CONTINUOUS
 62
    7
 10
1532.15
 20
305.36192893400937
 11
1531.65
 21
305.36192893400937
  0
LINE
  8
_0-1_
  6
CONTINUOUS
 62
    7
 10
1531.65
 20
305.36192893400937
 11
1531.3499999999999
 21
305.36192893400937
  0
LINE
  8
_0-1_
  6
CONTINUOUS
 62
    7
 10
1531.3499999999999
 20
305.36192893400937
 11
1530.75
 21
305.36192893400937
  0
LINE
  8
_0-1_
  6
CONTINUOUS
 62
    7
 10
1530.75
 20
305.36192893400937
 11
1530.75
 21
305.96192893400939
  0
LINE
  8
_0-1_
  6
CONTINUOUS
 62
    7
 10
1530.75
 20
305.96192893400939
 11
1531.3499999999999
 21
305.96192893400939
  0
LINE
  8
_0-1_
  6
CONTINUOUS
 62
    7
 10
1531.3499999999999
 20
305.96192893400939
 11
1531.65
 21
305.96192893400939
  0
LINE
  8
_0-1_
  6
CONTINUOUS
 62
    7
 10
1531.65
 20
305.96192893400939
 11
1532.15
 21
305.96192893400939
  0
LINE
  8
_0-1_
  6
CONTINUOUS
 62
    7
 10
1532.15
 20
305.96192893400939
 11
1532.4062100000001
 21
305.96192893400939
  0
LINE
  8
_0-1_
  6
CONTINUOUS
 62
    7
 10
1532.4062100000001
 20
305.96192893400939
 11
1532.9055599999999
 21
305.96192893400939
  0
LINE
  8
_0-1_
  6
CONTINUOUS
 62
    7
 10
1532.9055599999999
 20
305.96192893400939
 11
1532.95
 21
305.96192893400939
  0
LINE
  8
_0-1_
  6
CONTINUOUS
 62
    7
 10
1532.95
 20
305.96192893400939
 11
1533.1055599999999
 21
305.96192893400939
  0
LINE
  8
_0-1_
  6
CONTINUOUS
 62
    7
 10
1533.1055599999999
 20
305.96192893400939
 11
1533.3499999999999
 21
305.96192893400939
  0
LINE
  8
_0-1_
  6
CONTINUOUS
 62
    7
 10
1533.3499999999999
 20
305.96192893400939
 11
1533.606210000001
 21
305.96192893400939
  0
LINE
  8
_0-1_
  6
CONTINUOUS
 62
    7
 10
1533.606210000001
 20
305.96192893400939
 11
1533.95
 21
305.96192893400939
  0
LINE
  8
_0-1_
  6
CONTINUOUS
 62
    7
 10
1533.95
 20
305.96192893400939
 11
1536.0499999999999
 21
305.96192893400939
  0
ARC
  8
_0-1_
  6
CONTINUOUS
 62
    7
 10
1536.0500002241219
 20
306.26192870988688
 40
0.2999997758775257
 50
269.99995719571302
 51
0.0000428042869768
  0
LINE
  8
_0-1_
  6
CONTINUOUS
 62
    7
 10
1536.3499999999999
 20
306.2619289340094
 11
1536.3499999999999
 21
308.36192893400937
  0
LINE
  8
_0-1_
  6
CONTINUOUS
 62
    7
 10
1536.3499999999999
 20
308.36192893400937
 11
1536.3499999999999
 21
312.2619289340094
  0
LINE
  8
_0-1_
  6
CONTINUOUS
 62
    7
 10
1536.3499999999999
 20
312.2619289340094
 11
1536.3499999999999
 21
313.46192893400939
  0
LINE
  8
_0-1_
  6
CONTINUOUS
 62
    7
 10
1536.3499999999999
 20
313.46192893400939
 11
1536.3499999999999
 21
319.91748893400938
  0
LINE
  8
_0-1_
  6
CONTINUOUS
 62
    7
 10
1536.3499999999999
 20
319.91748893400938
 11
1536.3499999999999
 21
324.91748893400938
  0
LINE
  8
_0-1_
  6
CONTINUOUS
 62
    7
 10
1536.3499999999999
 20
324.91748893400938
 11
1536.3499999999999
 21
326.11470893400939
  0
LINE
  8
_0-1_
  6
CONTINUOUS
 62
    7
 10
1536.3499999999999
 20
326.11470893400939
 11
1536.3499999999999
 21
327.21192893400939
  0
ARC
  8
_0-1_
  6
CONTINUOUS
 62
    7
 10
1537.0999994396941
 20
327.21192949431576
 40
0.7499994396938216
 50
89.999957195713022
 51
180.00004280428686
  0
ARC
  8
_0-1_
  6
CONTINUOUS
 62
    7
 10
1537.100013385085
 20
327.21219225594859
 40
0.7497366781803195
 50
70.173813823145266
 51
90.001022904268722
  0
ARC
  8
_0-1_
  6
CONTINUOUS
 62
    7
 10
1537.1000192758378
 20
327.21193071533588
 40
0.7499807241643637
 50
359.99986391317628
 51
70.181014007050336
  0
LINE
  8
_0-1_
  6
CONTINUOUS
 62
    7
 10
1537.8499999999999
 20
327.21192893400939
 11
1537.8499999999999
 21
326.11470893400939
  0
LINE
  8
_0-1_
  6
CONTINUOUS
 62
    7
 10
1537.8499999999999
 20
326.11470893400939
 11
1537.8499999999999
 21
324.91748893400938
  0
LINE
  8
_0-1_
  6
CONTINUOUS
 62
    7
 10
1537.8499999999999
 20
324.91748893400938
 11
1537.8499999999999
 21
319.91748893400938
  0
LINE
  8
_0-1_
  6
CONTINUOUS
 62
    7
 10
1537.8499999999999
 20
319.91748893400938
 11
1537.8499999999999
 21
313.46192893400939
  0
LINE
  8
_0-1_
  6
CONTINUOUS
 62
    7
 10
1537.8499999999999
 20
313.46192893400939
 11
1537.8499999999999
 21
312.2619289340094
  0
LINE
  8
_0-1_
  6
CONTINUOUS
 62
    7
 10
1537.8499999999999
 20
312.2619289340094
 11
1537.8499999999999
 21
306.16192893400949
  0
LINE
  8
_0-1_
  6
CONTINUOUS
 62
    7
 10
1537.8499999999999
 20
306.16192893400949
 11
1537.8499999999999
 21
296.46192893400939
  0
LINE
  8
_0-1_
  6
CONTINUOUS
 62
    7
 10
1537.8499999999999
 20
296.46192893400939
 11
1537.8499999999999
 21
295.96192893400939
  0
LINE
  8
_0-1_
  6
CONTINUOUS
 62
    7
 10
1537.8499999999999
 20
295.96192893400939
 11
1537.8499999999999
 21
289.96192893400939
  0
LINE
  8
_0-1_
  6
CONTINUOUS
 62
    7
 10
1537.8499999999999
 20
289.96192893400939
 11
1537.8499999999999
 21
288.46192893400939
  0
LINE
  8
_0-1_
  6
CONTINUOUS
 62
    7
 10
1537.8499999999999
 20
288.46192893400939
 11
1537.8499999999999
 21
287.2619289340094
  0
LINE
  8
_0-1_
  6
CONTINUOUS
 62
    7
 10
1537.8499999999999
 20
287.2619289340094
 11
1537.8499999999999
 21
285.66192893400949
  0
LINE
  8
_0-1_
  6
CONTINUOUS
 62
    7
 10
1537.8499999999999
 20
285.66192893400949
 11
1537.8499999999999
 21
283.91748893400938
  0
LINE
  8
_0-1_
  6
CONTINUOUS
 62
    7
 10
1537.8499999999999
 20
283.91748893400938
 11
1537.8499999999999
 21
282.91748893400938
  0
LINE
  8
_0-1_
  6
CONTINUOUS
 62
    7
 10
1537.8499999999999
 20
282.91748893400938
 11
1537.8499999999999
 21
282.80914893400938
  0
LINE
  8
_0-1_
  6
CONTINUOUS
 62
    7
 10
1537.8499999999999
 20
282.80914893400938
 11
1537.8499999999999
 21
281.71192893400939
  0
ARC
  8
_0-1_
  6
CONTINUOUS
 62
    7
 10
1537.1000192758378
 20
281.7119271526829
 40
0.7499807241643591
 50
289.81898599294947
 51
0.0001360868235102
  0
ARC
  8
_0-1_
  6
CONTINUOUS
 62
    7
 10
1537.099999990565
 20
281.71174225982491
 40
0.7498133258155007
 50
270.00000072093666
 51
289.82516255165234
  0
ARC
  8
_0-1_
  6
CONTINUOUS
 62
    7
 10
1537.0999994396941
 20
281.71192837370296
 40
0.7499994396938216
 50
179.99995719571299
 51
270.00004280428697
  0
LINE
  8
_0-1_
  6
CONTINUOUS
 62
    7
 10
1536.3499999999999
 20
281.71192893400939
 11
1536.3499999999999
 21
282.80914893400938
  0
LINE
  8
_0-1_
  6
CONTINUOUS
 62
    7
 10
1536.3499999999999
 20
282.80914893400938
 11
1536.3499999999999
 21
282.91748893400938
  0
LINE
  8
_0-1_
  6
CONTINUOUS
 62
    7
 10
1536.3499999999999
 20
282.91748893400938
 11
1536.3499999999999
 21
283.91748893400938
  0
LINE
  8
_0-1_
  6
CONTINUOUS
 62
    7
 10
1536.3499999999999
 20
283.91748893400938
 11
1536.3499999999999
 21
287.2619289340094
  0
LINE
  8
_0-1_
  6
CONTINUOUS
 62
    7
 10
1536.3499999999999
 20
287.2619289340094
 11
1536.3499999999999
 21
288.46192893400939
  0
LINE
  8
_0-1_
  6
CONTINUOUS
 62
    7
 10
1536.3499999999999
 20
288.46192893400939
 11
1536.3499999999999
 21
289.96192893400939
  0
LINE
  8
_0-1_
  6
CONTINUOUS
 62
    7
 10
1536.3499999999999
 20
289.96192893400939
 11
1536.3499999999999
 21
295.96192893400939
  0
LINE
  8
_0-1_
  6
CONTINUOUS
 62
    7
 10
1536.3499999999999
 20
295.96192893400939
 11
1536.3499999999999
 21
296.46192893400939
  0
LINE
  8
_0-1_
  6
CONTINUOUS
 62
    7
 10
1536.3499999999999
 20
296.46192893400939
 11
1536.3499999999999
 21
301.16192893400949
  0
LINE
  8
_0-1_
  6
CONTINUOUS
 62
    7
 10
1536.3499999999999
 20
301.16192893400949
 11
1536.3499999999999
 21
301.91748893400938
  0
LINE
  8
_0-1_
  6
CONTINUOUS
 62
    7
 10
1535.3499999999999
 20
283.46192893400939
 11
1535.3499999999999
 21
286.96192893400939
  0
LINE
  8
_0-1_
  6
CONTINUOUS
 62
    7
 10
1534.3499999999999
 20
283.46192893400939
 11
1535.3499999999999
 21
283.46192893400939
  0
LINE
  8
_0-1_
  6
CONTINUOUS
 62
    7
 10
1532.3499999999999
 20
283.46192893400939
 11
1534.3499999999999
 21
283.46192893400939
  0
LINE
  8
_0-1_
  6
CONTINUOUS
 62
    7
 10
1531.3499999999999
 20
286.96192893400939
 11
1531.3499999999999
 21
283.46192893400939
  0
LINE
  8
_0-1_
  6
CONTINUOUS
 62
    7
 10
1531.3499999999999
 20
283.46192893400939
 11
1532.3499999999999
 21
283.46192893400939
  0
LINE
  8
_0-1_
  6
CONTINUOUS
 62
    7
 10
1529.7999999999999
 20
286.96192893400939
 11
1536.3499999999999
 21
286.96192893400939
  0
LINE
  8
_0-1_
  6
CONTINUOUS
 62
    7
 10
1547.65
 20
305.16192893400938
 11
1547.65
 21
304.56192893400941
  0
LINE
  8
_0-1_
  6
CONTINUOUS
 62
    7
 10
1547.65
 20
304.56192893400941
 11
1547.0499999999999
 21
304.56192893400941
  0
LINE
  8
_0-1_
  6
CONTINUOUS
 62
    7
 10
1547.0499999999999
 20
304.56192893400941
 11
1546.7500000000009
 21
304.56192893400941
  0
LINE
  8
_0-1_
  6
CONTINUOUS
 62
    7
 10
1546.7500000000009
 20
304.56192893400941
 11
1546.2500000000009
 21
304.56192893400941
  0
LINE
  8
_0-1_
  6
CONTINUOUS
 62
    7
 10
1546.2500000000009
 20
304.56192893400941
 11
1545.2500000000009
 21
304.56192893400941
  0
LINE
  8
_0-1_
  6
CONTINUOUS
 62
    7
 10
1545.2500000000009
 20
304.56192893400941
 11
1545.106210000001
 21
304.56192893400941
  0
LINE
  8
_0-1_
  6
CONTINUOUS
 62
    7
 10
1545.106210000001
 20
304.56192893400941
 11
1544.65
 21
304.56192893400941
  0
LINE
  8
_0-1_
  6
CONTINUOUS
 62
    7
 10
1544.65
 20
304.56192893400941
 11
1544.6055599999999
 21
304.56192893400941
  0
LINE
  8
_0-1_
  6
CONTINUOUS
 62
    7
 10
1544.6055599999999
 20
304.56192893400941
 11
1544.45
 21
304.56192893400941
  0
LINE
  8
_0-1_
  6
CONTINUOUS
 62
    7
 10
1544.45
 20
304.56192893400941
 11
1544.4055599999999
 21
304.56192893400941
  0
LINE
  8
_0-1_
  6
CONTINUOUS
 62
    7
 10
1544.4055599999999
 20
304.56192893400941
 11
1543.9062100000001
 21
304.56192893400941
  0
LINE
  8
_0-1_
  6
CONTINUOUS
 62
    7
 10
1543.9062100000001
 20
304.56192893400941
 11
1542.3499999999999
 21
304.56192893400941
  0
ARC
  8
_0-1_
  6
CONTINUOUS
 62
    7
 10
1542.3499993276329
 20
305.46192826164178
 40
0.8999993276325879
 50
179.99995719571316
 51
270.0000428042872
  0
LINE
  8
_0-1_
  6
CONTINUOUS
 62
    7
 10
1541.45
 20
305.46192893400939
 11
1541.45
 21
306.91748893400938
  0
LINE
  8
_0-1_
  6
CONTINUOUS
 62
    7
 10
1541.45
 20
306.91748893400938
 11
1541.45
 21
307.56192893400941
  0
LINE
  8
_0-1_
  6
CONTINUOUS
 62
    7
 10
1541.45
 20
307.56192893400941
 11
1541.45
 21
308.22192893400938
  0
LINE
  8
_0-1_
  6
CONTINUOUS
 62
    7
 10
1541.45
 20
308.22192893400938
 11
1541.45
 21
308.42192893400937
  0
LINE
  8
_0-1_
  6
CONTINUOUS
 62
    7
 10
1541.45
 20
308.42192893400937
 11
1541.45
 21
309.02192893400939
  0
LINE
  8
_0-1_
  6
CONTINUOUS
 62
    7
 10
1541.45
 20
309.02192893400939
 11
1541.45
 21
311.2619289340094
  0
LINE
  8
_0-1_
  6
CONTINUOUS
 62
    7
 10
1541.45
 20
311.2619289340094
 11
1541.45
 21
317.2619289340094
  0
LINE
  8
_0-1_
  6
CONTINUOUS
 62
    7
 10
1541.45
 20
317.2619289340094
 11
1541.45
 21
318.46192893400939
  0
LINE
  8
_0-1_
  6
CONTINUOUS
 62
    7
 10
1541.45
 20
318.46192893400939
 11
1541.45
 21
320.46192893400939
  0
LINE
  8
_0-1_
  6
CONTINUOUS
 62
    7
 10
1541.45
 20
320.46192893400939
 11
1541.45
 21
321.66192893400938
  0
LINE
  8
_0-1_
  6
CONTINUOUS
 62
    7
 10
1541.45
 20
321.66192893400938
 11
1541.45
 21
323.91748893400938
  0
LINE
  8
_0-1_
  6
CONTINUOUS
 62
    7
 10
1541.45
 20
323.91748893400938
 11
1541.45
 21
325.91748893400938
  0
LINE
  8
_0-1_
  6
CONTINUOUS
 62
    7
 10
1541.45
 20
325.91748893400938
 11
1541.45
 21
326.11470893400939
  0
LINE
  8
_0-1_
  6
CONTINUOUS
 62
    7
 10
1541.45
 20
326.11470893400939
 11
1541.45
 21
327.21192893400939
  0
ARC
  8
_0-1_
  6
CONTINUOUS
 62
    7
 10
1541.3000001120619
 20
327.21192904607067
 40
0.1499998879387628
 50
359.99995719571029
 51
90.000042804284234
  0
ARC
  8
_0-1_
  6
CONTINUOUS
 62
    7
 10
1541.299999887939
 20
327.21192904607067
 40
0.14999988793877
 50
89.999957195713022
 51
180.00004280428686
  0
LINE
  8
_0-1_
  6
CONTINUOUS
 62
    7
 10
1541.15
 20
327.21192893400939
 11
1541.15
 21
326.11470893400939
  0
LINE
  8
_0-1_
  6
CONTINUOUS
 62
    7
 10
1541.15
 20
326.11470893400939
 11
1541.15
 21
325.91748893400938
  0
LINE
  8
_0-1_
  6
CONTINUOUS
 62
    7
 10
1541.15
 20
325.91748893400938
 11
1541.15
 21
323.2619289340094
  0
LINE
  8
_0-1_
  6
CONTINUOUS
 62
    7
 10
1541.15
 20
323.2619289340094
 11
1541.15
 21
321.66192893400938
  0
LINE
  8
_0-1_
  6
CONTINUOUS
 62
    7
 10
1541.15
 20
321.66192893400938
 11
1541.15
 21
320.46192893400939
  0
LINE
  8
_0-1_
  6
CONTINUOUS
 62
    7
 10
1541.15
 20
320.46192893400939
 11
1541.15
 21
318.46192893400939
  0
LINE
  8
_0-1_
  6
CONTINUOUS
 62
    7
 10
1541.15
 20
318.46192893400939
 11
1541.15
 21
317.2619289340094
  0
LINE
  8
_0-1_
  6
CONTINUOUS
 62
    7
 10
1541.15
 20
317.2619289340094
 11
1541.15
 21
311.2619289340094
  0
LINE
  8
_0-1_
  6
CONTINUOUS
 62
    7
 10
1541.15
 20
311.2619289340094
 11
1541.15
 21
302.7619289340094
  0
LINE
  8
_0-1_
  6
CONTINUOUS
 62
    7
 10
1541.15
 20
302.7619289340094
 11
1541.15
 21
296.66192893400938
  0
LINE
  8
_0-1_
  6
CONTINUOUS
 62
    7
 10
1541.15
 20
296.66192893400938
 11
1541.15
 21
295.96192893400939
  0
LINE
  8
_0-1_
  6
CONTINUOUS
 62
    7
 10
1541.15
 20
295.96192893400939
 11
1541.15
 21
295.46192893400939
  0
LINE
  8
_0-1_
  6
CONTINUOUS
 62
    7
 10
1541.15
 20
295.46192893400939
 11
1541.15
 21
294.66192893400938
  0
LINE
  8
_0-1_
  6
CONTINUOUS
 62
    7
 10
1541.15
 20
294.66192893400938
 11
1541.15
 21
293.66192893400949
  0
LINE
  8
_0-1_
  6
CONTINUOUS
 62
    7
 10
1541.15
 20
293.66192893400949
 11
1541.15
 21
289.91748893400938
  0
LINE
  8
_0-1_
  6
CONTINUOUS
 62
    7
 10
1541.15
 20
289.91748893400938
 11
1541.15
 21
288.91748893400938
  0
LINE
  8
_0-1_
  6
CONTINUOUS
 62
    7
 10
1541.15
 20
288.91748893400938
 11
1541.15
 21
288.80914893400938
  0
LINE
  8
_0-1_
  6
CONTINUOUS
 62
    7
 10
1541.15
 20
288.80914893400938
 11
1541.15
 21
287.71192893400939
  0
ARC
  8
_0-1_
  6
CONTINUOUS
 62
    7
 10
1541.299999887939
 20
287.71192882194799
 40
0.1499998879387663
 50
179.99995719571435
 51
270.00004280428822
  0
ARC
  8
_0-1_
  6
CONTINUOUS
 62
    7
 10
1541.3000001120619
 20
287.71192882194799
 40
0.1499998879387592
 50
269.99995719571438
 51
0.0000428042883508
  0
LINE
  8
_0-1_
  6
CONTINUOUS
 62
    7
 10
1541.45
 20
287.71192893400939
 11
1541.45
 21
288.80914893400938
  0
LINE
  8
_0-1_
  6
CONTINUOUS
 62
    7
 10
1541.45
 20
288.80914893400938
 11
1541.45
 21
288.91748893400938
  0
LINE
  8
_0-1_
  6
CONTINUOUS
 62
    7
 10
1541.45
 20
288.91748893400938
 11
1541.45
 21
289.91748893400938
  0
LINE
  8
_0-1_
  6
CONTINUOUS
 62
    7
 10
1541.45
 20
289.91748893400938
 11
1541.45
 21
293.66192893400949
  0
LINE
  8
_0-1_
  6
CONTINUOUS
 62
    7
 10
1541.45
 20
293.66192893400949
 11
1541.45
 21
294.66192893400938
  0
LINE
  8
_0-1_
  6
CONTINUOUS
 62
    7
 10
1541.45
 20
294.66192893400938
 11
1541.45
 21
295.46192893400939
  0
LINE
  8
_0-1_
  6
CONTINUOUS
 62
    7
 10
1541.45
 20
295.46192893400939
 11
1541.45
 21
295.96192893400939
  0
LINE
  8
_0-1_
  6
CONTINUOUS
 62
    7
 10
1541.45
 20
295.96192893400939
 11
1541.45
 21
296.66192893400938
  0
LINE
  8
_0-1_
  6
CONTINUOUS
 62
    7
 10
1541.45
 20
296.66192893400938
 11
1541.45
 21
300.56192893400941
  0
LINE
  8
_0-1_
  6
CONTINUOUS
 62
    7
 10
1541.45
 20
300.56192893400941
 11
1541.45
 21
302.66192893400938
  0
ARC
  8
_0-1_
  6
CONTINUOUS
 62
    7
 10
1542.3499993276329
 20
302.6619296063771
 40
0.8999993276325879
 50
89.999957195712795
 51
180.00004280428666
  0
LINE
  8
_0-1_
  6
CONTINUOUS
 62
    7
 10
1542.3499999999999
 20
303.56192893400941
 11
1543.9062100000001
 21
303.56192893400941
  0
LINE
  8
_0-1_
  6
CONTINUOUS
 62
    7
 10
1543.9062100000001
 20
303.56192893400941
 11
1544.4055599999999
 21
303.56192893400941
  0
LINE
  8
_0-1_
  6
CONTINUOUS
 62
    7
 10
1544.4055599999999
 20
303.56192893400941
 11
1544.45
 21
303.56192893400941
  0
LINE
  8
_0-1_
  6
CONTINUOUS
 62
    7
 10
1544.45
 20
303.56192893400941
 11
1544.6055599999999
 21
303.56192893400941
  0
LINE
  8
_0-1_
  6
CONTINUOUS
 62
    7
 10
1544.6055599999999
 20
303.56192893400941
 11
1544.65
 21
303.56192893400941
  0
LINE
  8
_0-1_
  6
CONTINUOUS
 62
    7
 10
1544.65
 20
303.56192893400941
 11
1545.106210000001
 21
303.56192893400941
  0
LINE
  8
_0-1_
  6
CONTINUOUS
 62
    7
 10
1545.106210000001
 20
303.56192893400941
 11
1545.2500000000009
 21
303.56192893400941
  0
LINE
  8
_0-1_
  6
CONTINUOUS
 62
    7
 10
1545.2500000000009
 20
303.56192893400941
 11
1546.2500000000009
 21
303.56192893400941
  0
LINE
  8
_0-1_
  6
CONTINUOUS
 62
    7
 10
1546.2500000000009
 20
303.56192893400941
 11
1546.7500000000009
 21
303.56192893400941
  0
LINE
  8
_0-1_
  6
CONTINUOUS
 62
    7
 10
1546.7500000000009
 20
303.56192893400941
 11
1547.0499999999999
 21
303.56192893400941
  0
LINE
  8
_0-1_
  6
CONTINUOUS
 62
    7
 10
1547.0499999999999
 20
303.56192893400941
 11
1547.65
 21
303.56192893400941
  0
LINE
  8
_0-1_
  6
CONTINUOUS
 62
    7
 10
1547.65
 20
303.56192893400941
 11
1547.65
 21
302.96192893400939
  0
LINE
  8
_0-1_
  6
CONTINUOUS
 62
    7
 10
1547.65
 20
302.96192893400939
 11
1547.0499999999999
 21
302.96192893400939
  0
LINE
  8
_0-1_
  6
CONTINUOUS
 62
    7
 10
1547.0499999999999
 20
302.96192893400939
 11
1546.7500000000009
 21
302.96192893400939
  0
LINE
  8
_0-1_
  6
CONTINUOUS
 62
    7
 10
1546.7500000000009
 20
302.96192893400939
 11
1546.2500000000009
 21
302.96192893400939
  0
LINE
  8
_0-1_
  6
CONTINUOUS
 62
    7
 10
1546.2500000000009
 20
302.96192893400939
 11
1545.2500000000009
 21
302.96192893400939
  0
LINE
  8
_0-1_
  6
CONTINUOUS
 62
    7
 10
1545.2500000000009
 20
302.96192893400939
 11
1545.106210000001
 21
302.96192893400939
  0
LINE
  8
_0-1_
  6
CONTINUOUS
 62
    7
 10
1545.106210000001
 20
302.96192893400939
 11
1544.65
 21
302.96192893400939
  0
LINE
  8
_0-1_
  6
CONTINUOUS
 62
    7
 10
1544.65
 20
302.96192893400939
 11
1544.6055599999999
 21
302.96192893400939
  0
LINE
  8
_0-1_
  6
CONTINUOUS
 62
    7
 10
1544.6055599999999
 20
302.96192893400939
 11
1544.45
 21
302.96192893400939
  0
LINE
  8
_0-1_
  6
CONTINUOUS
 62
    7
 10
1544.45
 20
302.96192893400939
 11
1544.4055599999999
 21
302.96192893400939
  0
LINE
  8
_0-1_
  6
CONTINUOUS
 62
    7
 10
1544.4055599999999
 20
302.96192893400939
 11
1543.9062100000001
 21
302.96192893400939
  0
LINE
  8
_0-1_
  6
CONTINUOUS
 62
    7
 10
1543.9062100000001
 20
302.96192893400939
 11
1542.3499999999999
 21
302.96192893400939
  0
ARC
  8
_0-1_
  6
CONTINUOUS
 62
    7
 10
1542.3499997758769
 20
302.66192915813189
 40
0.2999997758775257
 50
89.999957195713022
 51
180.00004280428686
  0
LINE
  8
_0-1_
  6
CONTINUOUS
 62
    7
 10
1542.0499999999999
 20
302.66192893400938
 11
1542.0499999999999
 21
300.56192893400941
  0
LINE
  8
_0-1_
  6
CONTINUOUS
 62
    7
 10
1542.0499999999999
 20
300.56192893400941
 11
1542.0499999999999
 21
296.66192893400938
  0
LINE
  8
_0-1_
  6
CONTINUOUS
 62
    7
 10
1542.0499999999999
 20
296.66192893400938
 11
1542.0499999999999
 21
295.96192893400939
  0
LINE
  8
_0-1_
  6
CONTINUOUS
 62
    7
 10
1542.0499999999999
 20
295.96192893400939
 11
1542.0499999999999
 21
295.46192893400939
  0
LINE
  8
_0-1_
  6
CONTINUOUS
 62
    7
 10
1542.0499999999999
 20
295.46192893400939
 11
1542.0499999999999
 21
294.66192893400938
  0
LINE
  8
_0-1_
  6
CONTINUOUS
 62
    7
 10
1542.0499999999999
 20
294.66192893400938
 11
1542.0499999999999
 21
293.66192893400949
  0
LINE
  8
_0-1_
  6
CONTINUOUS
 62
    7
 10
1542.0499999999999
 20
293.66192893400949
 11
1542.0499999999999
 21
289.91748893400938
  0
LINE
  8
_0-1_
  6
CONTINUOUS
 62
    7
 10
1542.0499999999999
 20
289.91748893400938
 11
1542.0499999999999
 21
288.91748893400938
  0
LINE
  8
_0-1_
  6
CONTINUOUS
 62
    7
 10
1542.0499999999999
 20
288.91748893400938
 11
1542.0499999999999
 21
288.80914893400938
  0
LINE
  8
_0-1_
  6
CONTINUOUS
 62
    7
 10
1542.0499999999999
 20
288.80914893400938
 11
1542.0499999999999
 21
287.71192893400939
  0
ARC
  8
_0-1_
  6
CONTINUOUS
 62
    7
 10
1541.3000192758379
 20
287.7119271526829
 40
0.7499807241643591
 50
289.81898599294947
 51
0.0001360868235102
  0
ARC
  8
_0-1_
  6
CONTINUOUS
 62
    7
 10
1541.299999990565
 20
287.71174225982491
 40
0.7498133258155007
 50
270.00000072093666
 51
289.82516255165234
  0
ARC
  8
_0-1_
  6
CONTINUOUS
 62
    7
 10
1541.2999994396939
 20
287.71192837370296
 40
0.7499994396938216
 50
179.99995719571299
 51
270.00004280428697
  0
LINE
  8
_0-1_
  6
CONTINUOUS
 62
    7
 10
1540.5499999999999
 20
287.71192893400939
 11
1540.5499999999999
 21
288.80914893400938
  0
LINE
  8
_0-1_
  6
CONTINUOUS
 62
    7
 10
1540.5499999999999
 20
288.80914893400938
 11
1540.5499999999999
 21
288.91748893400938
  0
LINE
  8
_0-1_
  6
CONTINUOUS
 62
    7
 10
1540.5499999999999
 20
288.91748893400938
 11
1540.5499999999999
 21
289.91748893400938
  0
LINE
  8
_0-1_
  6
CONTINUOUS
 62
    7
 10
1540.5499999999999
 20
289.91748893400938
 11
1540.5499999999999
 21
293.66192893400949
  0
LINE
  8
_0-1_
  6
CONTINUOUS
 62
    7
 10
1540.5499999999999
 20
293.66192893400949
 11
1540.5499999999999
 21
294.66192893400938
  0
LINE
  8
_0-1_
  6
CONTINUOUS
 62
    7
 10
1540.5499999999999
 20
294.66192893400938
 11
1540.5499999999999
 21
295.46192893400939
  0
LINE
  8
_0-1_
  6
CONTINUOUS
 62
    7
 10
1540.5499999999999
 20
295.46192893400939
 11
1540.5499999999999
 21
295.96192893400939
  0
LINE
  8
_0-1_
  6
CONTINUOUS
 62
    7
 10
1540.5499999999999
 20
295.96192893400939
 11
1540.5499999999999
 21
296.66192893400938
  0
LINE
  8
_0-1_
  6
CONTINUOUS
 62
    7
 10
1540.5499999999999
 20
296.66192893400938
 11
1540.5499999999999
 21
302.7619289340094
  0
LINE
  8
_0-1_
  6
CONTINUOUS
 62
    7
 10
1540.5499999999999
 20
302.7619289340094
 11
1540.5499999999999
 21
311.2619289340094
  0
LINE
  8
_0-1_
  6
CONTINUOUS
 62
    7
 10
1540.5499999999999
 20
311.2619289340094
 11
1540.5499999999999
 21
317.2619289340094
  0
LINE
  8
_0-1_
  6
CONTINUOUS
 62
    7
 10
1540.5499999999999
 20
317.2619289340094
 11
1540.5499999999999
 21
318.46192893400939
  0
LINE
  8
_0-1_
  6
CONTINUOUS
 62
    7
 10
1540.5499999999999
 20
318.46192893400939
 11
1540.5499999999999
 21
320.46192893400939
  0
LINE
  8
_0-1_
  6
CONTINUOUS
 62
    7
 10
1540.5499999999999
 20
320.46192893400939
 11
1540.5499999999999
 21
321.66192893400938
  0
LINE
  8
_0-1_
  6
CONTINUOUS
 62
    7
 10
1540.5499999999999
 20
321.66192893400938
 11
1540.5499999999999
 21
323.2619289340094
  0
LINE
  8
_0-1_
  6
CONTINUOUS
 62
    7
 10
1540.5499999999999
 20
323.2619289340094
 11
1540.5499999999999
 21
325.91748893400938
  0
LINE
  8
_0-1_
  6
CONTINUOUS
 62
    7
 10
1540.5499999999999
 20
325.91748893400938
 11
1540.5499999999999
 21
326.11470893400939
  0
LINE
  8
_0-1_
  6
CONTINUOUS
 62
    7
 10
1540.5499999999999
 20
326.11470893400939
 11
1540.5499999999999
 21
327.21192893400939
  0
ARC
  8
_0-1_
  6
CONTINUOUS
 62
    7
 10
1541.2999994396939
 20
327.21192949431576
 40
0.7499994396938216
 50
89.999957195713022
 51
180.00004280428686
  0
ARC
  8
_0-1_
  6
CONTINUOUS
 62
    7
 10
1541.3000133850839
 20
327.21219225594859
 40
0.7497366781803195
 50
70.173813823145266
 51
90.001022904268722
  0
ARC
  8
_0-1_
  6
CONTINUOUS
 62
    7
 10
1541.3000192758379
 20
327.21193071533588
 40
0.7499807241643637
 50
359.99986391317628
 51
70.181014007050336
  0
LINE
  8
_0-1_
  6
CONTINUOUS
 62
    7
 10
1542.0499999999999
 20
327.21192893400939
 11
1542.0499999999999
 21
326.11470893400939
  0
LINE
  8
_0-1_
  6
CONTINUOUS
 62
    7
 10
1542.0499999999999
 20
326.11470893400939
 11
1542.0499999999999
 21
325.91748893400938
  0
LINE
  8
_0-1_
  6
CONTINUOUS
 62
    7
 10
1542.0499999999999
 20
325.91748893400938
 11
1542.0499999999999
 21
323.91748893400938
  0
LINE
  8
_0-1_
  6
CONTINUOUS
 62
    7
 10
1542.0499999999999
 20
323.91748893400938
 11
1542.0499999999999
 21
321.66192893400938
  0
LINE
  8
_0-1_
  6
CONTINUOUS
 62
    7
 10
1542.0499999999999
 20
321.66192893400938
 11
1542.0499999999999
 21
320.46192893400939
  0
LINE
  8
_0-1_
  6
CONTINUOUS
 62
    7
 10
1542.0499999999999
 20
320.46192893400939
 11
1542.0499999999999
 21
318.46192893400939
  0
LINE
  8
_0-1_
  6
CONTINUOUS
 62
    7
 10
1542.0499999999999
 20
318.46192893400939
 11
1542.0499999999999
 21
317.2619289340094
  0
LINE
  8
_0-1_
  6
CONTINUOUS
 62
    7
 10
1542.0499999999999
 20
317.2619289340094
 11
1542.0499999999999
 21
311.2619289340094
  0
LINE
  8
_0-1_
  6
CONTINUOUS
 62
    7
 10
1542.0499999999999
 20
311.2619289340094
 11
1542.0499999999999
 21
309.02192893400939
  0
LINE
  8
_0-1_
  6
CONTINUOUS
 62
    7
 10
1542.0499999999999
 20
309.02192893400939
 11
1542.0499999999999
 21
308.42192893400937
  0
LINE
  8
_0-1_
  6
CONTINUOUS
 62
    7
 10
1542.0499999999999
 20
308.42192893400937
 11
1542.0499999999999
 21
308.22192893400938
  0
LINE
  8
_0-1_
  6
CONTINUOUS
 62
    7
 10
1542.0499999999999
 20
308.22192893400938
 11
1542.0499999999999
 21
307.56192893400941
  0
LINE
  8
_0-1_
  6
CONTINUOUS
 62
    7
 10
1542.0499999999999
 20
307.56192893400941
 11
1542.0499999999999
 21
306.91748893400938
  0
LINE
  8
_0-1_
  6
CONTINUOUS
 62
    7
 10
1542.0499999999999
 20
306.91748893400938
 11
1542.0499999999999
 21
305.46192893400939
  0
ARC
  8
_0-1_
  6
CONTINUOUS
 62
    7
 10
1542.3499997758769
 20
305.46192870988676
 40
0.2999997758775257
 50
179.99995719571299
 51
270.00004280428697
  0
LINE
  8
_0-1_
  6
CONTINUOUS
 62
    7
 10
1542.3499999999999
 20
305.16192893400938
 11
1543.9062100000001
 21
305.16192893400938
  0
LINE
  8
_0-1_
  6
CONTINUOUS
 62
    7
 10
1543.9062100000001
 20
305.16192893400938
 11
1544.4055599999999
 21
305.16192893400938
  0
LINE
  8
_0-1_
  6
CONTINUOUS
 62
    7
 10
1544.4055599999999
 20
305.16192893400938
 11
1544.45
 21
305.16192893400938
  0
LINE
  8
_0-1_
  6
CONTINUOUS
 62
    7
 10
1544.45
 20
305.16192893400938
 11
1544.6055599999999
 21
305.16192893400938
  0
LINE
  8
_0-1_
  6
CONTINUOUS
 62
    7
 10
1544.6055599999999
 20
305.16192893400938
 11
1544.65
 21
305.16192893400938
  0
LINE
  8
_0-1_
  6
CONTINUOUS
 62
    7
 10
1544.65
 20
305.16192893400938
 11
1545.106210000001
 21
305.16192893400938
  0
LINE
  8
_0-1_
  6
CONTINUOUS
 62
    7
 10
1545.106210000001
 20
305.16192893400938
 11
1545.2500000000009
 21
305.16192893400938
  0
LINE
  8
_0-1_
  6
CONTINUOUS
 62
    7
 10
1545.2500000000009
 20
305.16192893400938
 11
1546.2500000000009
 21
305.16192893400938
  0
LINE
  8
_0-1_
  6
CONTINUOUS
 62
    7
 10
1546.2500000000009
 20
305.16192893400938
 11
1546.7500000000009
 21
305.16192893400938
  0
LINE
  8
_0-1_
  6
CONTINUOUS
 62
    7
 10
1546.7500000000009
 20
305.16192893400938
 11
1547.0499999999999
 21
305.16192893400938
  0
LINE
  8
_0-1_
  6
CONTINUOUS
 62
    7
 10
1547.0499999999999
 20
305.16192893400938
 11
1547.65
 21
305.16192893400938
  0
LINE
  8
_0-1_
  6
CONTINUOUS
 62
    7
 10
1547.8499999999999
 20
301.91748893400938
 11
1547.8499999999999
 21
302.11748893400937
  0
LINE
  8
_0-1_
  6
CONTINUOUS
 62
    7
 10
1547.8499999999999
 20
302.11748893400937
 11
1547.8499999999999
 21
303.46192893400939
  0
ARC
  8
_0-1_
  6
CONTINUOUS
 62
    7
 10
1547.5500002241219
 20
303.4619291581319
 40
0.2999997758775257
 50
359.99995719571302
 51
90.000042804286977
  0
LINE
  8
_0-1_
  6
CONTINUOUS
 62
    7
 10
1547.5499999999999
 20
303.7619289340094
 11
1545.45
 21
303.7619289340094
  0
LINE
  8
_0-1_
  6
CONTINUOUS
 62
    7
 10
1545.45
 20
303.7619289340094
 11
1545.106210000001
 21
303.7619289340094
  0
LINE
  8
_0-1_
  6
CONTINUOUS
 62
    7
 10
1545.106210000001
 20
303.7619289340094
 11
1544.8499999999999
 21
303.7619289340094
  0
LINE
  8
_0-1_
  6
CONTINUOUS
 62
    7
 10
1544.8499999999999
 20
303.7619289340094
 11
1544.6055599999999
 21
303.7619289340094
  0
LINE
  8
_0-1_
  6
CONTINUOUS
 62
    7
 10
1544.6055599999999
 20
303.7619289340094
 11
1544.45
 21
303.7619289340094
  0
LINE
  8
_0-1_
  6
CONTINUOUS
 62
    7
 10
1544.45
 20
303.7619289340094
 11
1544.4055599999999
 21
303.7619289340094
  0
LINE
  8
_0-1_
  6
CONTINUOUS
 62
    7
 10
1544.4055599999999
 20
303.7619289340094
 11
1543.9062100000001
 21
303.7619289340094
  0
LINE
  8
_0-1_
  6
CONTINUOUS
 62
    7
 10
1543.9062100000001
 20
303.7619289340094
 11
1543.65
 21
303.7619289340094
  0
LINE
  8
_0-1_
  6
CONTINUOUS
 62
    7
 10
1543.65
 20
303.7619289340094
 11
1543.15
 21
303.7619289340094
  0
LINE
  8
_0-1_
  6
CONTINUOUS
 62
    7
 10
1543.15
 20
303.7619289340094
 11
1542.8499999999999
 21
303.7619289340094
  0
LINE
  8
_0-1_
  6
CONTINUOUS
 62
    7
 10
1542.8499999999999
 20
303.7619289340094
 11
1542.2500000000009
 21
303.7619289340094
  0
LINE
  8
_0-1_
  6
CONTINUOUS
 62
    7
 10
1542.2500000000009
 20
303.7619289340094
 11
1542.2500000000009
 21
304.36192893400937
  0
LINE
  8
_0-1_
  6
CONTINUOUS
 62
    7
 10
1542.2500000000009
 20
304.36192893400937
 11
1542.8499999999999
 21
304.36192893400937
  0
LINE
  8
_0-1_
  6
CONTINUOUS
 62
    7
 10
1542.8499999999999
 20
304.36192893400937
 11
1543.15
 21
304.36192893400937
  0
LINE
  8
_0-1_
  6
CONTINUOUS
 62
    7
 10
1543.15
 20
304.36192893400937
 11
1543.65
 21
304.36192893400937
  0
LINE
  8
_0-1_
  6
CONTINUOUS
 62
    7
 10
1543.65
 20
304.36192893400937
 11
1543.9062100000001
 21
304.36192893400937
  0
LINE
  8
_0-1_
  6
CONTINUOUS
 62
    7
 10
1543.9062100000001
 20
304.36192893400937
 11
1544.4055599999999
 21
304.36192893400937
  0
LINE
  8
_0-1_
  6
CONTINUOUS
 62
    7
 10
1544.4055599999999
 20
304.36192893400937
 11
1544.45
 21
304.36192893400937
  0
LINE
  8
_0-1_
  6
CONTINUOUS
 62
    7
 10
1544.45
 20
304.36192893400937
 11
1544.6055599999999
 21
304.36192893400937
  0
LINE
  8
_0-1_
  6
CONTINUOUS
 62
    7
 10
1544.6055599999999
 20
304.36192893400937
 11
1544.8499999999999
 21
304.36192893400937
  0
LINE
  8
_0-1_
  6
CONTINUOUS
 62
    7
 10
1544.8499999999999
 20
304.36192893400937
 11
1545.106210000001
 21
304.36192893400937
  0
LINE
  8
_0-1_
  6
CONTINUOUS
 62
    7
 10
1545.106210000001
 20
304.36192893400937
 11
1545.45
 21
304.36192893400937
  0
LINE
  8
_0-1_
  6
CONTINUOUS
 62
    7
 10
1545.45
 20
304.36192893400937
 11
1547.5499999999999
 21
304.36192893400937
  0
ARC
  8
_0-1_
  6
CONTINUOUS
 62
    7
 10
1547.550000672368
 20
303.46192960637699
 40
0.8999993276325809
 50
359.99995719571279
 51
90.000042804286778
  0
LINE
  8
_0-1_
  6
CONTINUOUS
 62
    7
 10
1548.45
 20
303.46192893400939
 11
1548.45
 21
302.11748893400937
  0
LINE
  8
_0-1_
  6
CONTINUOUS
 62
    7
 10
1548.45
 20
302.11748893400937
 11
1548.45
 21
301.91748893400938
  0
LINE
  8
_0-1_
  6
CONTINUOUS
 62
    7
 10
1548.45
 20
301.91748893400938
 11
1548.45
 21
301.16192893400949
  0
LINE
  8
_0-1_
  6
CONTINUOUS
 62
    7
 10
1548.45
 20
301.16192893400949
 11
1548.45
 21
296.46192893400939
  0
LINE
  8
_0-1_
  6
CONTINUOUS
 62
    7
 10
1548.45
 20
296.46192893400939
 11
1548.45
 21
295.96192893400939
  0
LINE
  8
_0-1_
  6
CONTINUOUS
 62
    7
 10
1548.45
 20
295.96192893400939
 11
1548.45
 21
289.96192893400939
  0
LINE
  8
_0-1_
  6
CONTINUOUS
 62
    7
 10
1548.45
 20
289.96192893400939
 11
1548.45
 21
288.46192893400939
  0
LINE
  8
_0-1_
  6
CONTINUOUS
 62
    7
 10
1548.45
 20
288.46192893400939
 11
1548.45
 21
287.2619289340094
  0
LINE
  8
_0-1_
  6
CONTINUOUS
 62
    7
 10
1548.45
 20
287.2619289340094
 11
1548.45
 21
283.91748893400938
  0
LINE
  8
_0-1_
  6
CONTINUOUS
 62
    7
 10
1548.45
 20
283.91748893400938
 11
1548.45
 21
282.91748893400938
  0
LINE
  8
_0-1_
  6
CONTINUOUS
 62
    7
 10
1548.45
 20
282.91748893400938
 11
1548.45
 21
282.80914893400938
  0
LINE
  8
_0-1_
  6
CONTINUOUS
 62
    7
 10
1548.45
 20
282.80914893400938
 11
1548.45
 21
281.71192893400939
  0
ARC
  8
_0-1_
  6
CONTINUOUS
 62
    7
 10
1548.599999887939
 20
281.7119288219481
 40
0.1499998879387663
 50
179.99995719571435
 51
270.00004280428822
  0
ARC
  8
_0-1_
  6
CONTINUOUS
 62
    7
 10
1548.6000001120619
 20
281.7119288219481
 40
0.1499998879387663
 50
269.99995719571177
 51
0.0000428042856409
  0
LINE
  8
_0-1_
  6
CONTINUOUS
 62
    7
 10
1548.7500000000009
 20
281.71192893400939
 11
1548.7500000000009
 21
282.80914893400938
  0
LINE
  8
_0-1_
  6
CONTINUOUS
 62
    7
 10
1548.7500000000009
 20
282.80914893400938
 11
1548.7500000000009
 21
282.91748893400938
  0
LINE
  8
_0-1_
  6
CONTINUOUS
 62
    7
 10
1548.7500000000009
 20
282.91748893400938
 11
1548.7500000000009
 21
283.91748893400938
  0
LINE
  8
_0-1_
  6
CONTINUOUS
 62
    7
 10
1548.7500000000009
 20
283.91748893400938
 11
1548.7500000000009
 21
285.66192893400949
  0
LINE
  8
_0-1_
  6
CONTINUOUS
 62
    7
 10
1548.7500000000009
 20
285.66192893400949
 11
1548.7500000000009
 21
287.2619289340094
  0
LINE
  8
_0-1_
  6
CONTINUOUS
 62
    7
 10
1548.7500000000009
 20
287.2619289340094
 11
1548.7500000000009
 21
288.46192893400939
  0
LINE
  8
_0-1_
  6
CONTINUOUS
 62
    7
 10
1548.7500000000009
 20
288.46192893400939
 11
1548.7500000000009
 21
289.96192893400939
  0
LINE
  8
_0-1_
  6
CONTINUOUS
 62
    7
 10
1548.7500000000009
 20
289.96192893400939
 11
1548.7500000000009
 21
295.96192893400939
  0
LINE
  8
_0-1_
  6
CONTINUOUS
 62
    7
 10
1548.7500000000009
 20
295.96192893400939
 11
1548.7500000000009
 21
296.46192893400939
  0
LINE
  8
_0-1_
  6
CONTINUOUS
 62
    7
 10
1548.7500000000009
 20
296.46192893400939
 11
1548.7500000000009
 21
306.16192893400949
  0
LINE
  8
_0-1_
  6
CONTINUOUS
 62
    7
 10
1548.7500000000009
 20
306.16192893400949
 11
1548.7500000000009
 21
312.2619289340094
  0
LINE
  8
_0-1_
  6
CONTINUOUS
 62
    7
 10
1548.7500000000009
 20
312.2619289340094
 11
1548.7500000000009
 21
313.46192893400939
  0
LINE
  8
_0-1_
  6
CONTINUOUS
 62
    7
 10
1548.7500000000009
 20
313.46192893400939
 11
1548.7500000000009
 21
319.91748893400938
  0
LINE
  8
_0-1_
  6
CONTINUOUS
 62
    7
 10
1548.7500000000009
 20
319.91748893400938
 11
1548.7500000000009
 21
324.91748893400938
  0
LINE
  8
_0-1_
  6
CONTINUOUS
 62
    7
 10
1548.7500000000009
 20
324.91748893400938
 11
1548.7500000000009
 21
326.11470893400939
  0
LINE
  8
_0-1_
  6
CONTINUOUS
 62
    7
 10
1548.7500000000009
 20
326.11470893400939
 11
1548.7500000000009
 21
327.21192893400939
  0
ARC
  8
_0-1_
  6
CONTINUOUS
 62
    7
 10
1548.600000112061
 20
327.21192904607067
 40
0.14999988793877
 50
359.99995719571302
 51
90.000042804286977
  0
ARC
  8
_0-1_
  6
CONTINUOUS
 62
    7
 10
1548.599999887939
 20
327.21192904607067
 40
0.14999988793877
 50
89.999957195713022
 51
180.00004280428686
  0
LINE
  8
_0-1_
  6
CONTINUOUS
 62
    7
 10
1548.45
 20
327.21192893400939
 11
1548.45
 21
326.11470893400939
  0
LINE
  8
_0-1_
  6
CONTINUOUS
 62
    7
 10
1548.45
 20
326.11470893400939
 11
1548.45
 21
324.91748893400938
  0
LINE
  8
_0-1_
  6
CONTINUOUS
 62
    7
 10
1548.45
 20
324.91748893400938
 11
1548.45
 21
319.91748893400938
  0
LINE
  8
_0-1_
  6
CONTINUOUS
 62
    7
 10
1548.45
 20
319.91748893400938
 11
1548.45
 21
313.46192893400939
  0
LINE
  8
_0-1_
  6
CONTINUOUS
 62
    7
 10
1548.45
 20
313.46192893400939
 11
1548.45
 21
312.2619289340094
  0
LINE
  8
_0-1_
  6
CONTINUOUS
 62
    7
 10
1548.45
 20
312.2619289340094
 11
1548.45
 21
308.36192893400937
  0
LINE
  8
_0-1_
  6
CONTINUOUS
 62
    7
 10
1548.45
 20
308.36192893400937
 11
1548.45
 21
306.2619289340094
  0
ARC
  8
_0-1_
  6
CONTINUOUS
 62
    7
 10
1547.550000672368
 20
306.26192826164179
 40
0.8999993276325809
 50
269.99995719571325
 51
0.0000428042872312
  0
LINE
  8
_0-1_
  6
CONTINUOUS
 62
    7
 10
1547.5499999999999
 20
305.36192893400937
 11
1545.45
 21
305.36192893400937
  0
LINE
  8
_0-1_
  6
CONTINUOUS
 62
    7
 10
1545.45
 20
305.36192893400937
 11
1545.106210000001
 21
305.36192893400937
  0
LINE
  8
_0-1_
  6
CONTINUOUS
 62
    7
 10
1545.106210000001
 20
305.36192893400937
 11
1544.8499999999999
 21
305.36192893400937
  0
LINE
  8
_0-1_
  6
CONTINUOUS
 62
    7
 10
1544.8499999999999
 20
305.36192893400937
 11
1544.6055599999999
 21
305.36192893400937
  0
LINE
  8
_0-1_
  6
CONTINUOUS
 62
    7
 10
1544.6055599999999
 20
305.36192893400937
 11
1544.45
 21
305.36192893400937
  0
LINE
  8
_0-1_
  6
CONTINUOUS
 62
    7
 10
1544.45
 20
305.36192893400937
 11
1544.4055599999999
 21
305.36192893400937
  0
LINE
  8
_0-1_
  6
CONTINUOUS
 62
    7
 10
1544.4055599999999
 20
305.36192893400937
 11
1543.9062100000001
 21
305.36192893400937
  0
LINE
  8
_0-1_
  6
CONTINUOUS
 62
    7
 10
1543.9062100000001
 20
305.36192893400937
 11
1543.65
 21
305.36192893400937
  0
LINE
  8
_0-1_
  6
CONTINUOUS
 62
    7
 10
1543.65
 20
305.36192893400937
 11
1543.15
 21
305.36192893400937
  0
LINE
  8
_0-1_
  6
CONTINUOUS
 62
    7
 10
1543.15
 20
305.36192893400937
 11
1542.8499999999999
 21
305.36192893400937
  0
LINE
  8
_0-1_
  6
CONTINUOUS
 62
    7
 10
1542.8499999999999
 20
305.36192893400937
 11
1542.2500000000009
 21
305.36192893400937
  0
LINE
  8
_0-1_
  6
CONTINUOUS
 62
    7
 10
1542.2500000000009
 20
305.36192893400937
 11
1542.2500000000009
 21
305.96192893400939
  0
LINE
  8
_0-1_
  6
CONTINUOUS
 62
    7
 10
1542.2500000000009
 20
305.96192893400939
 11
1542.8499999999999
 21
305.96192893400939
  0
LINE
  8
_0-1_
  6
CONTINUOUS
 62
    7
 10
1542.8499999999999
 20
305.96192893400939
 11
1543.15
 21
305.96192893400939
  0
LINE
  8
_0-1_
  6
CONTINUOUS
 62
    7
 10
1543.15
 20
305.96192893400939
 11
1543.65
 21
305.96192893400939
  0
LINE
  8
_0-1_
  6
CONTINUOUS
 62
    7
 10
1543.65
 20
305.96192893400939
 11
1543.9062100000001
 21
305.96192893400939
  0
LINE
  8
_0-1_
  6
CONTINUOUS
 62
    7
 10
1543.9062100000001
 20
305.96192893400939
 11
1544.4055599999999
 21
305.96192893400939
  0
LINE
  8
_0-1_
  6
CONTINUOUS
 62
    7
 10
1544.4055599999999
 20
305.96192893400939
 11
1544.45
 21
305.96192893400939
  0
LINE
  8
_0-1_
  6
CONTINUOUS
 62
    7
 10
1544.45
 20
305.96192893400939
 11
1544.6055599999999
 21
305.96192893400939
  0
LINE
  8
_0-1_
  6
CONTINUOUS
 62
    7
 10
1544.6055599999999
 20
305.96192893400939
 11
1544.8499999999999
 21
305.96192893400939
  0
LINE
  8
_0-1_
  6
CONTINUOUS
 62
    7
 10
1544.8499999999999
 20
305.96192893400939
 11
1545.106210000001
 21
305.96192893400939
  0
LINE
  8
_0-1_
  6
CONTINUOUS
 62
    7
 10
1545.106210000001
 20
305.96192893400939
 11
1545.45
 21
305.96192893400939
  0
LINE
  8
_0-1_
  6
CONTINUOUS
 62
    7
 10
1545.45
 20
305.96192893400939
 11
1547.5499999999999
 21
305.96192893400939
  0
ARC
  8
_0-1_
  6
CONTINUOUS
 62
    7
 10
1547.5500002241219
 20
306.26192870988688
 40
0.2999997758775257
 50
269.99995719571302
 51
0.0000428042869768
  0
LINE
  8
_0-1_
  6
CONTINUOUS
 62
    7
 10
1547.8499999999999
 20
306.2619289340094
 11
1547.8499999999999
 21
308.36192893400937
  0
LINE
  8
_0-1_
  6
CONTINUOUS
 62
    7
 10
1547.8499999999999
 20
308.36192893400937
 11
1547.8499999999999
 21
312.2619289340094
  0
LINE
  8
_0-1_
  6
CONTINUOUS
 62
    7
 10
1547.8499999999999
 20
312.2619289340094
 11
1547.8499999999999
 21
313.46192893400939
  0
LINE
  8
_0-1_
  6
CONTINUOUS
 62
    7
 10
1547.8499999999999
 20
313.46192893400939
 11
1547.8499999999999
 21
319.91748893400938
  0
LINE
  8
_0-1_
  6
CONTINUOUS
 62
    7
 10
1547.8499999999999
 20
319.91748893400938
 11
1547.8499999999999
 21
324.91748893400938
  0
LINE
  8
_0-1_
  6
CONTINUOUS
 62
    7
 10
1547.8499999999999
 20
324.91748893400938
 11
1547.8499999999999
 21
326.11470893400939
  0
LINE
  8
_0-1_
  6
CONTINUOUS
 62
    7
 10
1547.8499999999999
 20
326.11470893400939
 11
1547.8499999999999
 21
327.21192893400939
  0
ARC
  8
_0-1_
  6
CONTINUOUS
 62
    7
 10
1548.5999994396941
 20
327.21192949431576
 40
0.7499994396938216
 50
89.999957195713022
 51
180.00004280428686
  0
ARC
  8
_0-1_
  6
CONTINUOUS
 62
    7
 10
1548.600013385085
 20
327.21219225594859
 40
0.7497366781803195
 50
70.173813823145266
 51
90.001022904268722
  0
ARC
  8
_0-1_
  6
CONTINUOUS
 62
    7
 10
1548.6000192758378
 20
327.21193071533588
 40
0.7499807241643637
 50
359.99986391317628
 51
70.181014007050336
  0
LINE
  8
_0-1_
  6
CONTINUOUS
 62
    7
 10
1549.3499999999999
 20
327.21192893400939
 11
1549.3499999999999
 21
326.11470893400939
  0
LINE
  8
_0-1_
  6
CONTINUOUS
 62
    7
 10
1549.3499999999999
 20
326.11470893400939
 11
1549.3499999999999
 21
324.91748893400938
  0
LINE
  8
_0-1_
  6
CONTINUOUS
 62
    7
 10
1549.3499999999999
 20
324.91748893400938
 11
1549.3499999999999
 21
319.91748893400938
  0
LINE
  8
_0-1_
  6
CONTINUOUS
 62
    7
 10
1549.3499999999999
 20
319.91748893400938
 11
1549.3499999999999
 21
313.46192893400939
  0
LINE
  8
_0-1_
  6
CONTINUOUS
 62
    7
 10
1549.3499999999999
 20
313.46192893400939
 11
1549.3499999999999
 21
312.2619289340094
  0
LINE
  8
_0-1_
  6
CONTINUOUS
 62
    7
 10
1549.3499999999999
 20
312.2619289340094
 11
1549.3499999999999
 21
306.16192893400949
  0
LINE
  8
_0-1_
  6
CONTINUOUS
 62
    7
 10
1549.3499999999999
 20
306.16192893400949
 11
1549.3499999999999
 21
296.46192893400939
  0
LINE
  8
_0-1_
  6
CONTINUOUS
 62
    7
 10
1549.3499999999999
 20
296.46192893400939
 11
1549.3499999999999
 21
295.96192893400939
  0
LINE
  8
_0-1_
  6
CONTINUOUS
 62
    7
 10
1549.3499999999999
 20
295.96192893400939
 11
1549.3499999999999
 21
289.96192893400939
  0
LINE
  8
_0-1_
  6
CONTINUOUS
 62
    7
 10
1549.3499999999999
 20
289.96192893400939
 11
1549.3499999999999
 21
288.46192893400939
  0
LINE
  8
_0-1_
  6
CONTINUOUS
 62
    7
 10
1549.3499999999999
 20
288.46192893400939
 11
1549.3499999999999
 21
287.2619289340094
  0
LINE
  8
_0-1_
  6
CONTINUOUS
 62
    7
 10
1549.3499999999999
 20
287.2619289340094
 11
1549.3499999999999
 21
285.66192893400949
  0
LINE
  8
_0-1_
  6
CONTINUOUS
 62
    7
 10
1549.3499999999999
 20
285.66192893400949
 11
1549.3499999999999
 21
283.91748893400938
  0
LINE
  8
_0-1_
  6
CONTINUOUS
 62
    7
 10
1549.3499999999999
 20
283.91748893400938
 11
1549.3499999999999
 21
282.91748893400938
  0
LINE
  8
_0-1_
  6
CONTINUOUS
 62
    7
 10
1549.3499999999999
 20
282.91748893400938
 11
1549.3499999999999
 21
282.80914893400938
  0
LINE
  8
_0-1_
  6
CONTINUOUS
 62
    7
 10
1549.3499999999999
 20
282.80914893400938
 11
1549.3499999999999
 21
281.71192893400939
  0
ARC
  8
_0-1_
  6
CONTINUOUS
 62
    7
 10
1548.6000192758378
 20
281.7119271526829
 40
0.7499807241643591
 50
289.81898599294947
 51
0.0001360868235102
  0
ARC
  8
_0-1_
  6
CONTINUOUS
 62
    7
 10
1548.599999990565
 20
281.71174225982491
 40
0.7498133258155007
 50
270.00000072093666
 51
289.82516255165234
  0
ARC
  8
_0-1_
  6
CONTINUOUS
 62
    7
 10
1548.5999994396941
 20
281.71192837370296
 40
0.7499994396938216
 50
179.99995719571299
 51
270.00004280428697
  0
LINE
  8
_0-1_
  6
CONTINUOUS
 62
    7
 10
1547.8499999999999
 20
281.71192893400939
 11
1547.8499999999999
 21
282.80914893400938
  0
LINE
  8
_0-1_
  6
CONTINUOUS
 62
    7
 10
1547.8499999999999
 20
282.80914893400938
 11
1547.8499999999999
 21
282.91748893400938
  0
LINE
  8
_0-1_
  6
CONTINUOUS
 62
    7
 10
1547.8499999999999
 20
282.91748893400938
 11
1547.8499999999999
 21
283.91748893400938
  0
LINE
  8
_0-1_
  6
CONTINUOUS
 62
    7
 10
1547.8499999999999
 20
283.91748893400938
 11
1547.8499999999999
 21
287.2619289340094
  0
LINE
  8
_0-1_
  6
CONTINUOUS
 62
    7
 10
1547.8499999999999
 20
287.2619289340094
 11
1547.8499999999999
 21
288.46192893400939
  0
LINE
  8
_0-1_
  6
CONTINUOUS
 62
    7
 10
1547.8499999999999
 20
288.46192893400939
 11
1547.8499999999999
 21
289.96192893400939
  0
LINE
  8
_0-1_
  6
CONTINUOUS
 62
    7
 10
1547.8499999999999
 20
289.96192893400939
 11
1547.8499999999999
 21
295.96192893400939
  0
LINE
  8
_0-1_
  6
CONTINUOUS
 62
    7
 10
1547.8499999999999
 20
295.96192893400939
 11
1547.8499999999999
 21
296.46192893400939
  0
LINE
  8
_0-1_
  6
CONTINUOUS
 62
    7
 10
1547.8499999999999
 20
296.46192893400939
 11
1547.8499999999999
 21
301.16192893400949
  0
LINE
  8
_0-1_
  6
CONTINUOUS
 62
    7
 10
1547.8499999999999
 20
301.16192893400949
 11
1547.8499999999999
 21
301.91748893400938
  0
LINE
  8
_0-1_
  6
CONTINUOUS
 62
    7
 10
1546.8499999999999
 20
283.46192893400939
 11
1546.8499999999999
 21
286.96192893400939
  0
LINE
  8
_0-1_
  6
CONTINUOUS
 62
    7
 10
1545.8499999999999
 20
283.46192893400939
 11
1546.8499999999999
 21
283.46192893400939
  0
LINE
  8
_0-1_
  6
CONTINUOUS
 62
    7
 10
1543.850000000001
 20
283.46192893400939
 11
1545.8499999999999
 21
283.46192893400939
  0
LINE
  8
_0-1_
  6
CONTINUOUS
 62
    7
 10
1542.8499999999999
 20
286.96192893400939
 11
1542.8499999999999
 21
283.46192893400939
  0
LINE
  8
_0-1_
  6
CONTINUOUS
 62
    7
 10
1542.8499999999999
 20
283.46192893400939
 11
1543.850000000001
 21
283.46192893400939
  0
LINE
  8
_0-1_
  6
CONTINUOUS
 62
    7
 10
1541.2999999999999
 20
286.96192893400939
 11
1547.8499999999999
 21
286.96192893400939
  0
LINE
  8
_0-1_
  6
CONTINUOUS
 62
    7
 10
1559.15
 20
305.16192893400938
 11
1559.15
 21
304.56192893400941
  0
LINE
  8
_0-1_
  6
CONTINUOUS
 62
    7
 10
1559.15
 20
304.56192893400941
 11
1558.5499999999999
 21
304.56192893400941
  0
LINE
  8
_0-1_
  6
CONTINUOUS
 62
    7
 10
1558.5499999999999
 20
304.56192893400941
 11
1558.2500000000009
 21
304.56192893400941
  0
LINE
  8
_0-1_
  6
CONTINUOUS
 62
    7
 10
1558.2500000000009
 20
304.56192893400941
 11
1557.7500000000009
 21
304.56192893400941
  0
LINE
  8
_0-1_
  6
CONTINUOUS
 62
    7
 10
1557.7500000000009
 20
304.56192893400941
 11
1556.7500000000009
 21
304.56192893400941
  0
LINE
  8
_0-1_
  6
CONTINUOUS
 62
    7
 10
1556.7500000000009
 20
304.56192893400941
 11
1556.606210000001
 21
304.56192893400941
  0
LINE
  8
_0-1_
  6
CONTINUOUS
 62
    7
 10
1556.606210000001
 20
304.56192893400941
 11
1556.15
 21
304.56192893400941
  0
LINE
  8
_0-1_
  6
CONTINUOUS
 62
    7
 10
1556.15
 20
304.56192893400941
 11
1556.1055599999999
 21
304.56192893400941
  0
LINE
  8
_0-1_
  6
CONTINUOUS
 62
    7
 10
1556.1055599999999
 20
304.56192893400941
 11
1555.95
 21
304.56192893400941
  0
LINE
  8
_0-1_
  6
CONTINUOUS
 62
    7
 10
1555.95
 20
304.56192893400941
 11
1555.9055599999999
 21
304.56192893400941
  0
LINE
  8
_0-1_
  6
CONTINUOUS
 62
    7
 10
1555.9055599999999
 20
304.56192893400941
 11
1555.4062100000001
 21
304.56192893400941
  0
LINE
  8
_0-1_
  6
CONTINUOUS
 62
    7
 10
1555.4062100000001
 20
304.56192893400941
 11
1553.8499999999999
 21
304.56192893400941
  0
ARC
  8
_0-1_
  6
CONTINUOUS
 62
    7
 10
1553.8499993276329
 20
305.46192826164178
 40
0.8999993276325879
 50
179.99995719571316
 51
270.0000428042872
  0
LINE
  8
_0-1_
  6
CONTINUOUS
 62
    7
 10
1552.95
 20
305.46192893400939
 11
1552.95
 21
306.91748893400938
  0
LINE
  8
_0-1_
  6
CONTINUOUS
 62
    7
 10
1552.95
 20
306.91748893400938
 11
1552.95
 21
307.56192893400941
  0
LINE
  8
_0-1_
  6
CONTINUOUS
 62
    7
 10
1552.95
 20
307.56192893400941
 11
1552.95
 21
308.22192893400938
  0
LINE
  8
_0-1_
  6
CONTINUOUS
 62
    7
 10
1552.95
 20
308.22192893400938
 11
1552.95
 21
308.42192893400937
  0
LINE
  8
_0-1_
  6
CONTINUOUS
 62
    7
 10
1552.95
 20
308.42192893400937
 11
1552.95
 21
309.02192893400939
  0
LINE
  8
_0-1_
  6
CONTINUOUS
 62
    7
 10
1552.95
 20
309.02192893400939
 11
1552.95
 21
311.2619289340094
  0
LINE
  8
_0-1_
  6
CONTINUOUS
 62
    7
 10
1552.95
 20
311.2619289340094
 11
1552.95
 21
317.2619289340094
  0
LINE
  8
_0-1_
  6
CONTINUOUS
 62
    7
 10
1552.95
 20
317.2619289340094
 11
1552.95
 21
318.46192893400939
  0
LINE
  8
_0-1_
  6
CONTINUOUS
 62
    7
 10
1552.95
 20
318.46192893400939
 11
1552.95
 21
320.46192893400939
  0
LINE
  8
_0-1_
  6
CONTINUOUS
 62
    7
 10
1552.95
 20
320.46192893400939
 11
1552.95
 21
321.66192893400938
  0
LINE
  8
_0-1_
  6
CONTINUOUS
 62
    7
 10
1552.95
 20
321.66192893400938
 11
1552.95
 21
323.91748893400938
  0
LINE
  8
_0-1_
  6
CONTINUOUS
 62
    7
 10
1552.95
 20
323.91748893400938
 11
1552.95
 21
325.91748893400938
  0
LINE
  8
_0-1_
  6
CONTINUOUS
 62
    7
 10
1552.95
 20
325.91748893400938
 11
1552.95
 21
326.11470893400939
  0
LINE
  8
_0-1_
  6
CONTINUOUS
 62
    7
 10
1552.95
 20
326.11470893400939
 11
1552.95
 21
327.21192893400939
  0
ARC
  8
_0-1_
  6
CONTINUOUS
 62
    7
 10
1552.8000001120619
 20
327.21192904607067
 40
0.1499998879387628
 50
359.99995719571029
 51
90.000042804284234
  0
ARC
  8
_0-1_
  6
CONTINUOUS
 62
    7
 10
1552.799999887939
 20
327.21192904607067
 40
0.14999988793877
 50
89.999957195713022
 51
180.00004280428686
  0
LINE
  8
_0-1_
  6
CONTINUOUS
 62
    7
 10
1552.65
 20
327.21192893400939
 11
1552.65
 21
326.11470893400939
  0
LINE
  8
_0-1_
  6
CONTINUOUS
 62
    7
 10
1552.65
 20
326.11470893400939
 11
1552.65
 21
325.91748893400938
  0
LINE
  8
_0-1_
  6
CONTINUOUS
 62
    7
 10
1552.65
 20
325.91748893400938
 11
1552.65
 21
323.2619289340094
  0
LINE
  8
_0-1_
  6
CONTINUOUS
 62
    7
 10
1552.65
 20
323.2619289340094
 11
1552.65
 21
321.66192893400938
  0
LINE
  8
_0-1_
  6
CONTINUOUS
 62
    7
 10
1552.65
 20
321.66192893400938
 11
1552.65
 21
320.46192893400939
  0
LINE
  8
_0-1_
  6
CONTINUOUS
 62
    7
 10
1552.65
 20
320.46192893400939
 11
1552.65
 21
318.46192893400939
  0
LINE
  8
_0-1_
  6
CONTINUOUS
 62
    7
 10
1552.65
 20
318.46192893400939
 11
1552.65
 21
317.2619289340094
  0
LINE
  8
_0-1_
  6
CONTINUOUS
 62
    7
 10
1552.65
 20
317.2619289340094
 11
1552.65
 21
311.2619289340094
  0
LINE
  8
_0-1_
  6
CONTINUOUS
 62
    7
 10
1552.65
 20
311.2619289340094
 11
1552.65
 21
302.7619289340094
  0
LINE
  8
_0-1_
  6
CONTINUOUS
 62
    7
 10
1552.65
 20
302.7619289340094
 11
1552.65
 21
296.66192893400938
  0
LINE
  8
_0-1_
  6
CONTINUOUS
 62
    7
 10
1552.65
 20
296.66192893400938
 11
1552.65
 21
295.96192893400939
  0
LINE
  8
_0-1_
  6
CONTINUOUS
 62
    7
 10
1552.65
 20
295.96192893400939
 11
1552.65
 21
295.46192893400939
  0
LINE
  8
_0-1_
  6
CONTINUOUS
 62
    7
 10
1552.65
 20
295.46192893400939
 11
1552.65
 21
294.66192893400938
  0
LINE
  8
_0-1_
  6
CONTINUOUS
 62
    7
 10
1552.65
 20
294.66192893400938
 11
1552.65
 21
293.66192893400949
  0
LINE
  8
_0-1_
  6
CONTINUOUS
 62
    7
 10
1552.65
 20
293.66192893400949
 11
1552.65
 21
289.91748893400938
  0
LINE
  8
_0-1_
  6
CONTINUOUS
 62
    7
 10
1552.65
 20
289.91748893400938
 11
1552.65
 21
288.91748893400938
  0
LINE
  8
_0-1_
  6
CONTINUOUS
 62
    7
 10
1552.65
 20
288.91748893400938
 11
1552.65
 21
288.80914893400938
  0
LINE
  8
_0-1_
  6
CONTINUOUS
 62
    7
 10
1552.65
 20
288.80914893400938
 11
1552.65
 21
287.71192893400939
  0
ARC
  8
_0-1_
  6
CONTINUOUS
 62
    7
 10
1552.799999887939
 20
287.71192882194799
 40
0.1499998879387663
 50
179.99995719571435
 51
270.00004280428822
  0
ARC
  8
_0-1_
  6
CONTINUOUS
 62
    7
 10
1552.8000001120619
 20
287.71192882194799
 40
0.1499998879387592
 50
269.99995719571438
 51
0.0000428042883508
  0
LINE
  8
_0-1_
  6
CONTINUOUS
 62
    7
 10
1552.95
 20
287.71192893400939
 11
1552.95
 21
288.80914893400938
  0
LINE
  8
_0-1_
  6
CONTINUOUS
 62
    7
 10
1552.95
 20
288.80914893400938
 11
1552.95
 21
288.91748893400938
  0
LINE
  8
_0-1_
  6
CONTINUOUS
 62
    7
 10
1552.95
 20
288.91748893400938
 11
1552.95
 21
289.91748893400938
  0
LINE
  8
_0-1_
  6
CONTINUOUS
 62
    7
 10
1552.95
 20
289.91748893400938
 11
1552.95
 21
293.66192893400949
  0
LINE
  8
_0-1_
  6
CONTINUOUS
 62
    7
 10
1552.95
 20
293.66192893400949
 11
1552.95
 21
294.66192893400938
  0
LINE
  8
_0-1_
  6
CONTINUOUS
 62
    7
 10
1552.95
 20
294.66192893400938
 11
1552.95
 21
295.46192893400939
  0
LINE
  8
_0-1_
  6
CONTINUOUS
 62
    7
 10
1552.95
 20
295.46192893400939
 11
1552.95
 21
295.96192893400939
  0
LINE
  8
_0-1_
  6
CONTINUOUS
 62
    7
 10
1552.95
 20
295.96192893400939
 11
1552.95
 21
296.66192893400938
  0
LINE
  8
_0-1_
  6
CONTINUOUS
 62
    7
 10
1552.95
 20
296.66192893400938
 11
1552.95
 21
300.56192893400941
  0
LINE
  8
_0-1_
  6
CONTINUOUS
 62
    7
 10
1552.95
 20
300.56192893400941
 11
1552.95
 21
302.66192893400938
  0
ARC
  8
_0-1_
  6
CONTINUOUS
 62
    7
 10
1553.8499993276329
 20
302.6619296063771
 40
0.8999993276325879
 50
89.999957195712795
 51
180.00004280428666
  0
LINE
  8
_0-1_
  6
CONTINUOUS
 62
    7
 10
1553.8499999999999
 20
303.56192893400941
 11
1555.4062100000001
 21
303.56192893400941
  0
LINE
  8
_0-1_
  6
CONTINUOUS
 62
    7
 10
1555.4062100000001
 20
303.56192893400941
 11
1555.9055599999999
 21
303.56192893400941
  0
LINE
  8
_0-1_
  6
CONTINUOUS
 62
    7
 10
1555.9055599999999
 20
303.56192893400941
 11
1555.95
 21
303.56192893400941
  0
LINE
  8
_0-1_
  6
CONTINUOUS
 62
    7
 10
1555.95
 20
303.56192893400941
 11
1556.1055599999999
 21
303.56192893400941
  0
LINE
  8
_0-1_
  6
CONTINUOUS
 62
    7
 10
1556.1055599999999
 20
303.56192893400941
 11
1556.15
 21
303.56192893400941
  0
LINE
  8
_0-1_
  6
CONTINUOUS
 62
    7
 10
1556.15
 20
303.56192893400941
 11
1556.606210000001
 21
303.56192893400941
  0
LINE
  8
_0-1_
  6
CONTINUOUS
 62
    7
 10
1556.606210000001
 20
303.56192893400941
 11
1556.7500000000009
 21
303.56192893400941
  0
LINE
  8
_0-1_
  6
CONTINUOUS
 62
    7
 10
1556.7500000000009
 20
303.56192893400941
 11
1557.7500000000009
 21
303.56192893400941
  0
LINE
  8
_0-1_
  6
CONTINUOUS
 62
    7
 10
1557.7500000000009
 20
303.56192893400941
 11
1558.2500000000009
 21
303.56192893400941
  0
LINE
  8
_0-1_
  6
CONTINUOUS
 62
    7
 10
1558.2500000000009
 20
303.56192893400941
 11
1558.5499999999999
 21
303.56192893400941
  0
LINE
  8
_0-1_
  6
CONTINUOUS
 62
    7
 10
1558.5499999999999
 20
303.56192893400941
 11
1559.15
 21
303.56192893400941
  0
LINE
  8
_0-1_
  6
CONTINUOUS
 62
    7
 10
1559.15
 20
303.56192893400941
 11
1559.15
 21
302.96192893400939
  0
LINE
  8
_0-1_
  6
CONTINUOUS
 62
    7
 10
1559.15
 20
302.96192893400939
 11
1558.5499999999999
 21
302.96192893400939
  0
LINE
  8
_0-1_
  6
CONTINUOUS
 62
    7
 10
1558.5499999999999
 20
302.96192893400939
 11
1558.2500000000009
 21
302.96192893400939
  0
LINE
  8
_0-1_
  6
CONTINUOUS
 62
    7
 10
1558.2500000000009
 20
302.96192893400939
 11
1557.7500000000009
 21
302.96192893400939
  0
LINE
  8
_0-1_
  6
CONTINUOUS
 62
    7
 10
1557.7500000000009
 20
302.96192893400939
 11
1556.7500000000009
 21
302.96192893400939
  0
LINE
  8
_0-1_
  6
CONTINUOUS
 62
    7
 10
1556.7500000000009
 20
302.96192893400939
 11
1556.606210000001
 21
302.96192893400939
  0
LINE
  8
_0-1_
  6
CONTINUOUS
 62
    7
 10
1556.606210000001
 20
302.96192893400939
 11
1556.15
 21
302.96192893400939
  0
LINE
  8
_0-1_
  6
CONTINUOUS
 62
    7
 10
1556.15
 20
302.96192893400939
 11
1556.1055599999999
 21
302.96192893400939
  0
LINE
  8
_0-1_
  6
CONTINUOUS
 62
    7
 10
1556.1055599999999
 20
302.96192893400939
 11
1555.95
 21
302.96192893400939
  0
LINE
  8
_0-1_
  6
CONTINUOUS
 62
    7
 10
1555.95
 20
302.96192893400939
 11
1555.9055599999999
 21
302.96192893400939
  0
LINE
  8
_0-1_
  6
CONTINUOUS
 62
    7
 10
1555.9055599999999
 20
302.96192893400939
 11
1555.4062100000001
 21
302.96192893400939
  0
LINE
  8
_0-1_
  6
CONTINUOUS
 62
    7
 10
1555.4062100000001
 20
302.96192893400939
 11
1553.8499999999999
 21
302.96192893400939
  0
ARC
  8
_0-1_
  6
CONTINUOUS
 62
    7
 10
1553.8499997758769
 20
302.66192915813189
 40
0.2999997758775257
 50
89.999957195713022
 51
180.00004280428686
  0
LINE
  8
_0-1_
  6
CONTINUOUS
 62
    7
 10
1553.5499999999999
 20
302.66192893400938
 11
1553.5499999999999
 21
300.56192893400941
  0
LINE
  8
_0-1_
  6
CONTINUOUS
 62
    7
 10
1553.5499999999999
 20
300.56192893400941
 11
1553.5499999999999
 21
296.66192893400938
  0
LINE
  8
_0-1_
  6
CONTINUOUS
 62
    7
 10
1553.5499999999999
 20
296.66192893400938
 11
1553.5499999999999
 21
295.96192893400939
  0
LINE
  8
_0-1_
  6
CONTINUOUS
 62
    7
 10
1553.5499999999999
 20
295.96192893400939
 11
1553.5499999999999
 21
295.46192893400939
  0
LINE
  8
_0-1_
  6
CONTINUOUS
 62
    7
 10
1553.5499999999999
 20
295.46192893400939
 11
1553.5499999999999
 21
294.66192893400938
  0
LINE
  8
_0-1_
  6
CONTINUOUS
 62
    7
 10
1553.5499999999999
 20
294.66192893400938
 11
1553.5499999999999
 21
293.66192893400949
  0
LINE
  8
_0-1_
  6
CONTINUOUS
 62
    7
 10
1553.5499999999999
 20
293.66192893400949
 11
1553.5499999999999
 21
289.91748893400938
  0
LINE
  8
_0-1_
  6
CONTINUOUS
 62
    7
 10
1553.5499999999999
 20
289.91748893400938
 11
1553.5499999999999
 21
288.91748893400938
  0
LINE
  8
_0-1_
  6
CONTINUOUS
 62
    7
 10
1553.5499999999999
 20
288.91748893400938
 11
1553.5499999999999
 21
288.80914893400938
  0
LINE
  8
_0-1_
  6
CONTINUOUS
 62
    7
 10
1553.5499999999999
 20
288.80914893400938
 11
1553.5499999999999
 21
287.71192893400939
  0
ARC
  8
_0-1_
  6
CONTINUOUS
 62
    7
 10
1552.8000192758379
 20
287.7119271526829
 40
0.7499807241643591
 50
289.81898599294947
 51
0.0001360868235102
  0
ARC
  8
_0-1_
  6
CONTINUOUS
 62
    7
 10
1552.799999990565
 20
287.71174225982491
 40
0.7498133258155007
 50
270.00000072093666
 51
289.82516255165234
  0
ARC
  8
_0-1_
  6
CONTINUOUS
 62
    7
 10
1552.7999994396939
 20
287.71192837370296
 40
0.7499994396938216
 50
179.99995719571299
 51
270.00004280428697
  0
LINE
  8
_0-1_
  6
CONTINUOUS
 62
    7
 10
1552.0499999999999
 20
287.71192893400939
 11
1552.0499999999999
 21
288.80914893400938
  0
LINE
  8
_0-1_
  6
CONTINUOUS
 62
    7
 10
1552.0499999999999
 20
288.80914893400938
 11
1552.0499999999999
 21
288.91748893400938
  0
LINE
  8
_0-1_
  6
CONTINUOUS
 62
    7
 10
1552.0499999999999
 20
288.91748893400938
 11
1552.0499999999999
 21
289.91748893400938
  0
LINE
  8
_0-1_
  6
CONTINUOUS
 62
    7
 10
1552.0499999999999
 20
289.91748893400938
 11
1552.0499999999999
 21
293.66192893400949
  0
LINE
  8
_0-1_
  6
CONTINUOUS
 62
    7
 10
1552.0499999999999
 20
293.66192893400949
 11
1552.0499999999999
 21
294.66192893400938
  0
LINE
  8
_0-1_
  6
CONTINUOUS
 62
    7
 10
1552.0499999999999
 20
294.66192893400938
 11
1552.0499999999999
 21
295.46192893400939
  0
LINE
  8
_0-1_
  6
CONTINUOUS
 62
    7
 10
1552.0499999999999
 20
295.46192893400939
 11
1552.0499999999999
 21
295.96192893400939
  0
LINE
  8
_0-1_
  6
CONTINUOUS
 62
    7
 10
1552.0499999999999
 20
295.96192893400939
 11
1552.0499999999999
 21
296.66192893400938
  0
LINE
  8
_0-1_
  6
CONTINUOUS
 62
    7
 10
1552.0499999999999
 20
296.66192893400938
 11
1552.0499999999999
 21
302.7619289340094
  0
LINE
  8
_0-1_
  6
CONTINUOUS
 62
    7
 10
1552.0499999999999
 20
302.7619289340094
 11
1552.0499999999999
 21
311.2619289340094
  0
LINE
  8
_0-1_
  6
CONTINUOUS
 62
    7
 10
1552.0499999999999
 20
311.2619289340094
 11
1552.0499999999999
 21
317.2619289340094
  0
LINE
  8
_0-1_
  6
CONTINUOUS
 62
    7
 10
1552.0499999999999
 20
317.2619289340094
 11
1552.0499999999999
 21
318.46192893400939
  0
LINE
  8
_0-1_
  6
CONTINUOUS
 62
    7
 10
1552.0499999999999
 20
318.46192893400939
 11
1552.0499999999999
 21
320.46192893400939
  0
LINE
  8
_0-1_
  6
CONTINUOUS
 62
    7
 10
1552.0499999999999
 20
320.46192893400939
 11
1552.0499999999999
 21
321.66192893400938
  0
LINE
  8
_0-1_
  6
CONTINUOUS
 62
    7
 10
1552.0499999999999
 20
321.66192893400938
 11
1552.0499999999999
 21
323.2619289340094
  0
LINE
  8
_0-1_
  6
CONTINUOUS
 62
    7
 10
1552.0499999999999
 20
323.2619289340094
 11
1552.0499999999999
 21
325.91748893400938
  0
LINE
  8
_0-1_
  6
CONTINUOUS
 62
    7
 10
1552.0499999999999
 20
325.91748893400938
 11
1552.0499999999999
 21
326.11470893400939
  0
LINE
  8
_0-1_
  6
CONTINUOUS
 62
    7
 10
1552.0499999999999
 20
326.11470893400939
 11
1552.0499999999999
 21
327.21192893400939
  0
ARC
  8
_0-1_
  6
CONTINUOUS
 62
    7
 10
1552.7999994396939
 20
327.21192949431576
 40
0.7499994396938216
 50
89.999957195713022
 51
180.00004280428686
  0
ARC
  8
_0-1_
  6
CONTINUOUS
 62
    7
 10
1552.8000133850839
 20
327.21219225594859
 40
0.7497366781803195
 50
70.173813823145266
 51
90.001022904268722
  0
ARC
  8
_0-1_
  6
CONTINUOUS
 62
    7
 10
1552.8000192758379
 20
327.21193071533588
 40
0.7499807241643637
 50
359.99986391317628
 51
70.181014007050336
  0
LINE
  8
_0-1_
  6
CONTINUOUS
 62
    7
 10
1553.5499999999999
 20
327.21192893400939
 11
1553.5499999999999
 21
326.11470893400939
  0
LINE
  8
_0-1_
  6
CONTINUOUS
 62
    7
 10
1553.5499999999999
 20
326.11470893400939
 11
1553.5499999999999
 21
325.91748893400938
  0
LINE
  8
_0-1_
  6
CONTINUOUS
 62
    7
 10
1553.5499999999999
 20
325.91748893400938
 11
1553.5499999999999
 21
323.91748893400938
  0
LINE
  8
_0-1_
  6
CONTINUOUS
 62
    7
 10
1553.5499999999999
 20
323.91748893400938
 11
1553.5499999999999
 21
321.66192893400938
  0
LINE
  8
_0-1_
  6
CONTINUOUS
 62
    7
 10
1553.5499999999999
 20
321.66192893400938
 11
1553.5499999999999
 21
320.46192893400939
  0
LINE
  8
_0-1_
  6
CONTINUOUS
 62
    7
 10
1553.5499999999999
 20
320.46192893400939
 11
1553.5499999999999
 21
318.46192893400939
  0
LINE
  8
_0-1_
  6
CONTINUOUS
 62
    7
 10
1553.5499999999999
 20
318.46192893400939
 11
1553.5499999999999
 21
317.2619289340094
  0
LINE
  8
_0-1_
  6
CONTINUOUS
 62
    7
 10
1553.5499999999999
 20
317.2619289340094
 11
1553.5499999999999
 21
311.2619289340094
  0
LINE
  8
_0-1_
  6
CONTINUOUS
 62
    7
 10
1553.5499999999999
 20
311.2619289340094
 11
1553.5499999999999
 21
309.02192893400939
  0
LINE
  8
_0-1_
  6
CONTINUOUS
 62
    7
 10
1553.5499999999999
 20
309.02192893400939
 11
1553.5499999999999
 21
308.42192893400937
  0
LINE
  8
_0-1_
  6
CONTINUOUS
 62
    7
 10
1553.5499999999999
 20
308.42192893400937
 11
1553.5499999999999
 21
308.22192893400938
  0
LINE
  8
_0-1_
  6
CONTINUOUS
 62
    7
 10
1553.5499999999999
 20
308.22192893400938
 11
1553.5499999999999
 21
307.56192893400941
  0
LINE
  8
_0-1_
  6
CONTINUOUS
 62
    7
 10
1553.5499999999999
 20
307.56192893400941
 11
1553.5499999999999
 21
306.91748893400938
  0
LINE
  8
_0-1_
  6
CONTINUOUS
 62
    7
 10
1553.5499999999999
 20
306.91748893400938
 11
1553.5499999999999
 21
305.46192893400939
  0
ARC
  8
_0-1_
  6
CONTINUOUS
 62
    7
 10
1553.8499997758769
 20
305.46192870988676
 40
0.2999997758775257
 50
179.99995719571299
 51
270.00004280428697
  0
LINE
  8
_0-1_
  6
CONTINUOUS
 62
    7
 10
1553.8499999999999
 20
305.16192893400938
 11
1555.4062100000001
 21
305.16192893400938
  0
LINE
  8
_0-1_
  6
CONTINUOUS
 62
    7
 10
1555.4062100000001
 20
305.16192893400938
 11
1555.9055599999999
 21
305.16192893400938
  0
LINE
  8
_0-1_
  6
CONTINUOUS
 62
    7
 10
1555.9055599999999
 20
305.16192893400938
 11
1555.95
 21
305.16192893400938
  0
LINE
  8
_0-1_
  6
CONTINUOUS
 62
    7
 10
1555.95
 20
305.16192893400938
 11
1556.1055599999999
 21
305.16192893400938
  0
LINE
  8
_0-1_
  6
CONTINUOUS
 62
    7
 10
1556.1055599999999
 20
305.16192893400938
 11
1556.15
 21
305.16192893400938
  0
LINE
  8
_0-1_
  6
CONTINUOUS
 62
    7
 10
1556.15
 20
305.16192893400938
 11
1556.606210000001
 21
305.16192893400938
  0
LINE
  8
_0-1_
  6
CONTINUOUS
 62
    7
 10
1556.606210000001
 20
305.16192893400938
 11
1556.7500000000009
 21
305.16192893400938
  0
LINE
  8
_0-1_
  6
CONTINUOUS
 62
    7
 10
1556.7500000000009
 20
305.16192893400938
 11
1557.7500000000009
 21
305.16192893400938
  0
LINE
  8
_0-1_
  6
CONTINUOUS
 62
    7
 10
1557.7500000000009
 20
305.16192893400938
 11
1558.2500000000009
 21
305.16192893400938
  0
LINE
  8
_0-1_
  6
CONTINUOUS
 62
    7
 10
1558.2500000000009
 20
305.16192893400938
 11
1558.5499999999999
 21
305.16192893400938
  0
LINE
  8
_0-1_
  6
CONTINUOUS
 62
    7
 10
1558.5499999999999
 20
305.16192893400938
 11
1559.15
 21
305.16192893400938
  0
LINE
  8
_0-1_
  6
CONTINUOUS
 62
    7
 10
1559.3499999999999
 20
301.91748893400938
 11
1559.3499999999999
 21
302.11748893400937
  0
LINE
  8
_0-1_
  6
CONTINUOUS
 62
    7
 10
1559.3499999999999
 20
302.11748893400937
 11
1559.3499999999999
 21
303.46192893400939
  0
ARC
  8
_0-1_
  6
CONTINUOUS
 62
    7
 10
1559.0500002241219
 20
303.4619291581319
 40
0.2999997758775257
 50
359.99995719571302
 51
90.000042804286977
  0
LINE
  8
_0-1_
  6
CONTINUOUS
 62
    7
 10
1559.0499999999999
 20
303.7619289340094
 11
1556.95
 21
303.7619289340094
  0
LINE
  8
_0-1_
  6
CONTINUOUS
 62
    7
 10
1556.95
 20
303.7619289340094
 11
1556.606210000001
 21
303.7619289340094
  0
LINE
  8
_0-1_
  6
CONTINUOUS
 62
    7
 10
1556.606210000001
 20
303.7619289340094
 11
1556.350000000001
 21
303.7619289340094
  0
LINE
  8
_0-1_
  6
CONTINUOUS
 62
    7
 10
1556.350000000001
 20
303.7619289340094
 11
1556.1055599999999
 21
303.7619289340094
  0
LINE
  8
_0-1_
  6
CONTINUOUS
 62
    7
 10
1556.1055599999999
 20
303.7619289340094
 11
1555.95
 21
303.7619289340094
  0
LINE
  8
_0-1_
  6
CONTINUOUS
 62
    7
 10
1555.95
 20
303.7619289340094
 11
1555.9055599999999
 21
303.7619289340094
  0
LINE
  8
_0-1_
  6
CONTINUOUS
 62
    7
 10
1555.9055599999999
 20
303.7619289340094
 11
1555.4062100000001
 21
303.7619289340094
  0
LINE
  8
_0-1_
  6
CONTINUOUS
 62
    7
 10
1555.4062100000001
 20
303.7619289340094
 11
1555.15
 21
303.7619289340094
  0
LINE
  8
_0-1_
  6
CONTINUOUS
 62
    7
 10
1555.15
 20
303.7619289340094
 11
1554.65
 21
303.7619289340094
  0
LINE
  8
_0-1_
  6
CONTINUOUS
 62
    7
 10
1554.65
 20
303.7619289340094
 11
1554.350000000001
 21
303.7619289340094
  0
LINE
  8
_0-1_
  6
CONTINUOUS
 62
    7
 10
1554.350000000001
 20
303.7619289340094
 11
1553.7500000000009
 21
303.7619289340094
  0
LINE
  8
_0-1_
  6
CONTINUOUS
 62
    7
 10
1553.7500000000009
 20
303.7619289340094
 11
1553.7500000000009
 21
304.36192893400937
  0
LINE
  8
_0-1_
  6
CONTINUOUS
 62
    7
 10
1553.7500000000009
 20
304.36192893400937
 11
1554.350000000001
 21
304.36192893400937
  0
LINE
  8
_0-1_
  6
CONTINUOUS
 62
    7
 10
1554.350000000001
 20
304.36192893400937
 11
1554.65
 21
304.36192893400937
  0
LINE
  8
_0-1_
  6
CONTINUOUS
 62
    7
 10
1554.65
 20
304.36192893400937
 11
1555.15
 21
304.36192893400937
  0
LINE
  8
_0-1_
  6
CONTINUOUS
 62
    7
 10
1555.15
 20
304.36192893400937
 11
1555.4062100000001
 21
304.36192893400937
  0
LINE
  8
_0-1_
  6
CONTINUOUS
 62
    7
 10
1555.4062100000001
 20
304.36192893400937
 11
1555.9055599999999
 21
304.36192893400937
  0
LINE
  8
_0-1_
  6
CONTINUOUS
 62
    7
 10
1555.9055599999999
 20
304.36192893400937
 11
1555.95
 21
304.36192893400937
  0
LINE
  8
_0-1_
  6
CONTINUOUS
 62
    7
 10
1555.95
 20
304.36192893400937
 11
1556.1055599999999
 21
304.36192893400937
  0
LINE
  8
_0-1_
  6
CONTINUOUS
 62
    7
 10
1556.1055599999999
 20
304.36192893400937
 11
1556.350000000001
 21
304.36192893400937
  0
LINE
  8
_0-1_
  6
CONTINUOUS
 62
    7
 10
1556.350000000001
 20
304.36192893400937
 11
1556.606210000001
 21
304.36192893400937
  0
LINE
  8
_0-1_
  6
CONTINUOUS
 62
    7
 10
1556.606210000001
 20
304.36192893400937
 11
1556.95
 21
304.36192893400937
  0
LINE
  8
_0-1_
  6
CONTINUOUS
 62
    7
 10
1556.95
 20
304.36192893400937
 11
1559.0499999999999
 21
304.36192893400937
  0
ARC
  8
_0-1_
  6
CONTINUOUS
 62
    7
 10
1559.050000672368
 20
303.46192960637699
 40
0.8999993276325809
 50
359.99995719571279
 51
90.000042804286778
  0
LINE
  8
_0-1_
  6
CONTINUOUS
 62
    7
 10
1559.95
 20
303.46192893400939
 11
1559.95
 21
302.11748893400937
  0
LINE
  8
_0-1_
  6
CONTINUOUS
 62
    7
 10
1559.95
 20
302.11748893400937
 11
1559.95
 21
301.91748893400938
  0
LINE
  8
_0-1_
  6
CONTINUOUS
 62
    7
 10
1559.95
 20
301.91748893400938
 11
1559.95
 21
301.16192893400949
  0
LINE
  8
_0-1_
  6
CONTINUOUS
 62
    7
 10
1559.95
 20
301.16192893400949
 11
1559.95
 21
296.46192893400939
  0
LINE
  8
_0-1_
  6
CONTINUOUS
 62
    7
 10
1559.95
 20
296.46192893400939
 11
1559.95
 21
295.96192893400939
  0
LINE
  8
_0-1_
  6
CONTINUOUS
 62
    7
 10
1559.95
 20
295.96192893400939
 11
1559.95
 21
289.96192893400939
  0
LINE
  8
_0-1_
  6
CONTINUOUS
 62
    7
 10
1559.95
 20
289.96192893400939
 11
1559.95
 21
288.46192893400939
  0
LINE
  8
_0-1_
  6
CONTINUOUS
 62
    7
 10
1559.95
 20
288.46192893400939
 11
1559.95
 21
287.2619289340094
  0
LINE
  8
_0-1_
  6
CONTINUOUS
 62
    7
 10
1559.95
 20
287.2619289340094
 11
1559.95
 21
283.91748893400938
  0
LINE
  8
_0-1_
  6
CONTINUOUS
 62
    7
 10
1559.95
 20
283.91748893400938
 11
1559.95
 21
282.91748893400938
  0
LINE
  8
_0-1_
  6
CONTINUOUS
 62
    7
 10
1559.95
 20
282.91748893400938
 11
1559.95
 21
282.80914893400938
  0
LINE
  8
_0-1_
  6
CONTINUOUS
 62
    7
 10
1559.95
 20
282.80914893400938
 11
1559.95
 21
281.71192893400939
  0
ARC
  8
_0-1_
  6
CONTINUOUS
 62
    7
 10
1560.0999998879381
 20
281.7119288219481
 40
0.1499998879387663
 50
179.99995719571435
 51
270.00004280428822
  0
ARC
  8
_0-1_
  6
CONTINUOUS
 62
    7
 10
1560.1000001120619
 20
281.7119288219481
 40
0.1499998879387663
 50
269.99995719571177
 51
0.0000428042856409
  0
LINE
  8
_0-1_
  6
CONTINUOUS
 62
    7
 10
1560.25
 20
281.71192893400939
 11
1560.25
 21
282.80914893400938
  0
LINE
  8
_0-1_
  6
CONTINUOUS
 62
    7
 10
1560.25
 20
282.80914893400938
 11
1560.25
 21
282.91748893400938
  0
LINE
  8
_0-1_
  6
CONTINUOUS
 62
    7
 10
1560.25
 20
282.91748893400938
 11
1560.25
 21
283.91748893400938
  0
LINE
  8
_0-1_
  6
CONTINUOUS
 62
    7
 10
1560.25
 20
283.91748893400938
 11
1560.25
 21
285.66192893400949
  0
LINE
  8
_0-1_
  6
CONTINUOUS
 62
    7
 10
1560.25
 20
285.66192893400949
 11
1560.25
 21
287.2619289340094
  0
LINE
  8
_0-1_
  6
CONTINUOUS
 62
    7
 10
1560.25
 20
287.2619289340094
 11
1560.25
 21
288.46192893400939
  0
LINE
  8
_0-1_
  6
CONTINUOUS
 62
    7
 10
1560.25
 20
288.46192893400939
 11
1560.25
 21
289.96192893400939
  0
LINE
  8
_0-1_
  6
CONTINUOUS
 62
    7
 10
1560.25
 20
289.96192893400939
 11
1560.25
 21
295.96192893400939
  0
LINE
  8
_0-1_
  6
CONTINUOUS
 62
    7
 10
1560.25
 20
295.96192893400939
 11
1560.25
 21
296.46192893400939
  0
LINE
  8
_0-1_
  6
CONTINUOUS
 62
    7
 10
1560.25
 20
296.46192893400939
 11
1560.25
 21
306.16192893400949
  0
LINE
  8
_0-1_
  6
CONTINUOUS
 62
    7
 10
1560.25
 20
306.16192893400949
 11
1560.25
 21
312.2619289340094
  0
LINE
  8
_0-1_
  6
CONTINUOUS
 62
    7
 10
1560.25
 20
312.2619289340094
 11
1560.25
 21
313.46192893400939
  0
LINE
  8
_0-1_
  6
CONTINUOUS
 62
    7
 10
1560.25
 20
313.46192893400939
 11
1560.25
 21
319.91748893400938
  0
LINE
  8
_0-1_
  6
CONTINUOUS
 62
    7
 10
1560.25
 20
319.91748893400938
 11
1560.25
 21
324.91748893400938
  0
LINE
  8
_0-1_
  6
CONTINUOUS
 62
    7
 10
1560.25
 20
324.91748893400938
 11
1560.25
 21
326.11470893400939
  0
LINE
  8
_0-1_
  6
CONTINUOUS
 62
    7
 10
1560.25
 20
326.11470893400939
 11
1560.25
 21
327.21192893400939
  0
ARC
  8
_0-1_
  6
CONTINUOUS
 62
    7
 10
1560.100000112061
 20
327.21192904607067
 40
0.14999988793877
 50
359.99995719571302
 51
90.000042804286977
  0
ARC
  8
_0-1_
  6
CONTINUOUS
 62
    7
 10
1560.099999887939
 20
327.21192904607067
 40
0.14999988793877
 50
89.999957195713022
 51
180.00004280428686
  0
LINE
  8
_0-1_
  6
CONTINUOUS
 62
    7
 10
1559.95
 20
327.21192893400939
 11
1559.95
 21
326.11470893400939
  0
LINE
  8
_0-1_
  6
CONTINUOUS
 62
    7
 10
1559.95
 20
326.11470893400939
 11
1559.95
 21
324.91748893400938
  0
LINE
  8
_0-1_
  6
CONTINUOUS
 62
    7
 10
1559.95
 20
324.91748893400938
 11
1559.95
 21
319.91748893400938
  0
LINE
  8
_0-1_
  6
CONTINUOUS
 62
    7
 10
1559.95
 20
319.91748893400938
 11
1559.95
 21
313.46192893400939
  0
LINE
  8
_0-1_
  6
CONTINUOUS
 62
    7
 10
1559.95
 20
313.46192893400939
 11
1559.95
 21
312.2619289340094
  0
LINE
  8
_0-1_
  6
CONTINUOUS
 62
    7
 10
1559.95
 20
312.2619289340094
 11
1559.95
 21
308.36192893400937
  0
LINE
  8
_0-1_
  6
CONTINUOUS
 62
    7
 10
1559.95
 20
308.36192893400937
 11
1559.95
 21
306.2619289340094
  0
ARC
  8
_0-1_
  6
CONTINUOUS
 62
    7
 10
1559.050000672368
 20
306.26192826164179
 40
0.8999993276325809
 50
269.99995719571325
 51
0.0000428042872312
  0
LINE
  8
_0-1_
  6
CONTINUOUS
 62
    7
 10
1559.0499999999999
 20
305.36192893400937
 11
1556.95
 21
305.36192893400937
  0
LINE
  8
_0-1_
  6
CONTINUOUS
 62
    7
 10
1556.95
 20
305.36192893400937
 11
1556.606210000001
 21
305.36192893400937
  0
LINE
  8
_0-1_
  6
CONTINUOUS
 62
    7
 10
1556.606210000001
 20
305.36192893400937
 11
1556.350000000001
 21
305.36192893400937
  0
LINE
  8
_0-1_
  6
CONTINUOUS
 62
    7
 10
1556.350000000001
 20
305.36192893400937
 11
1556.1055599999999
 21
305.36192893400937
  0
LINE
  8
_0-1_
  6
CONTINUOUS
 62
    7
 10
1556.1055599999999
 20
305.36192893400937
 11
1555.95
 21
305.36192893400937
  0
LINE
  8
_0-1_
  6
CONTINUOUS
 62
    7
 10
1555.95
 20
305.36192893400937
 11
1555.9055599999999
 21
305.36192893400937
  0
LINE
  8
_0-1_
  6
CONTINUOUS
 62
    7
 10
1555.9055599999999
 20
305.36192893400937
 11
1555.4062100000001
 21
305.36192893400937
  0
LINE
  8
_0-1_
  6
CONTINUOUS
 62
    7
 10
1555.4062100000001
 20
305.36192893400937
 11
1555.15
 21
305.36192893400937
  0
LINE
  8
_0-1_
  6
CONTINUOUS
 62
    7
 10
1555.15
 20
305.36192893400937
 11
1554.65
 21
305.36192893400937
  0
LINE
  8
_0-1_
  6
CONTINUOUS
 62
    7
 10
1554.65
 20
305.36192893400937
 11
1554.350000000001
 21
305.36192893400937
  0
LINE
  8
_0-1_
  6
CONTINUOUS
 62
    7
 10
1554.350000000001
 20
305.36192893400937
 11
1553.7500000000009
 21
305.36192893400937
  0
LINE
  8
_0-1_
  6
CONTINUOUS
 62
    7
 10
1553.7500000000009
 20
305.36192893400937
 11
1553.7500000000009
 21
305.96192893400939
  0
LINE
  8
_0-1_
  6
CONTINUOUS
 62
    7
 10
1553.7500000000009
 20
305.96192893400939
 11
1554.350000000001
 21
305.96192893400939
  0
LINE
  8
_0-1_
  6
CONTINUOUS
 62
    7
 10
1554.350000000001
 20
305.96192893400939
 11
1554.65
 21
305.96192893400939
  0
LINE
  8
_0-1_
  6
CONTINUOUS
 62
    7
 10
1554.65
 20
305.96192893400939
 11
1555.15
 21
305.96192893400939
  0
LINE
  8
_0-1_
  6
CONTINUOUS
 62
    7
 10
1555.15
 20
305.96192893400939
 11
1555.4062100000001
 21
305.96192893400939
  0
LINE
  8
_0-1_
  6
CONTINUOUS
 62
    7
 10
1555.4062100000001
 20
305.96192893400939
 11
1555.9055599999999
 21
305.96192893400939
  0
LINE
  8
_0-1_
  6
CONTINUOUS
 62
    7
 10
1555.9055599999999
 20
305.96192893400939
 11
1555.95
 21
305.96192893400939
  0
LINE
  8
_0-1_
  6
CONTINUOUS
 62
    7
 10
1555.95
 20
305.96192893400939
 11
1556.1055599999999
 21
305.96192893400939
  0
LINE
  8
_0-1_
  6
CONTINUOUS
 62
    7
 10
1556.1055599999999
 20
305.96192893400939
 11
1556.350000000001
 21
305.96192893400939
  0
LINE
  8
_0-1_
  6
CONTINUOUS
 62
    7
 10
1556.350000000001
 20
305.96192893400939
 11
1556.606210000001
 21
305.96192893400939
  0
LINE
  8
_0-1_
  6
CONTINUOUS
 62
    7
 10
1556.606210000001
 20
305.96192893400939
 11
1556.95
 21
305.96192893400939
  0
LINE
  8
_0-1_
  6
CONTINUOUS
 62
    7
 10
1556.95
 20
305.96192893400939
 11
1559.0499999999999
 21
305.96192893400939
  0
ARC
  8
_0-1_
  6
CONTINUOUS
 62
    7
 10
1559.0500002241219
 20
306.26192870988688
 40
0.2999997758775257
 50
269.99995719571302
 51
0.0000428042869768
  0
LINE
  8
_0-1_
  6
CONTINUOUS
 62
    7
 10
1559.3499999999999
 20
306.2619289340094
 11
1559.3499999999999
 21
308.36192893400937
  0
LINE
  8
_0-1_
  6
CONTINUOUS
 62
    7
 10
1559.3499999999999
 20
308.36192893400937
 11
1559.3499999999999
 21
312.2619289340094
  0
LINE
  8
_0-1_
  6
CONTINUOUS
 62
    7
 10
1559.3499999999999
 20
312.2619289340094
 11
1559.3499999999999
 21
313.46192893400939
  0
LINE
  8
_0-1_
  6
CONTINUOUS
 62
    7
 10
1559.3499999999999
 20
313.46192893400939
 11
1559.3499999999999
 21
319.91748893400938
  0
LINE
  8
_0-1_
  6
CONTINUOUS
 62
    7
 10
1559.3499999999999
 20
319.91748893400938
 11
1559.3499999999999
 21
324.91748893400938
  0
LINE
  8
_0-1_
  6
CONTINUOUS
 62
    7
 10
1559.3499999999999
 20
324.91748893400938
 11
1559.3499999999999
 21
326.11470893400939
  0
LINE
  8
_0-1_
  6
CONTINUOUS
 62
    7
 10
1559.3499999999999
 20
326.11470893400939
 11
1559.3499999999999
 21
327.21192893400939
  0
ARC
  8
_0-1_
  6
CONTINUOUS
 62
    7
 10
1560.0999994396941
 20
327.21192949431576
 40
0.7499994396938216
 50
89.999957195713022
 51
180.00004280428686
  0
ARC
  8
_0-1_
  6
CONTINUOUS
 62
    7
 10
1560.100013385085
 20
327.21219225594859
 40
0.7497366781803195
 50
70.173813823145266
 51
90.001022904268722
  0
ARC
  8
_0-1_
  6
CONTINUOUS
 62
    7
 10
1560.1000192758378
 20
327.21193071533588
 40
0.7499807241643637
 50
359.99986391317628
 51
70.181014007050336
  0
LINE
  8
_0-1_
  6
CONTINUOUS
 62
    7
 10
1560.850000000001
 20
327.21192893400939
 11
1560.850000000001
 21
326.11470893400939
  0
LINE
  8
_0-1_
  6
CONTINUOUS
 62
    7
 10
1560.850000000001
 20
326.11470893400939
 11
1560.850000000001
 21
324.91748893400938
  0
LINE
  8
_0-1_
  6
CONTINUOUS
 62
    7
 10
1560.850000000001
 20
324.91748893400938
 11
1560.850000000001
 21
319.91748893400938
  0
LINE
  8
_0-1_
  6
CONTINUOUS
 62
    7
 10
1560.850000000001
 20
319.91748893400938
 11
1560.850000000001
 21
313.46192893400939
  0
LINE
  8
_0-1_
  6
CONTINUOUS
 62
    7
 10
1560.850000000001
 20
313.46192893400939
 11
1560.850000000001
 21
312.2619289340094
  0
LINE
  8
_0-1_
  6
CONTINUOUS
 62
    7
 10
1560.850000000001
 20
312.2619289340094
 11
1560.850000000001
 21
306.16192893400949
  0
LINE
  8
_0-1_
  6
CONTINUOUS
 62
    7
 10
1560.850000000001
 20
306.16192893400949
 11
1560.850000000001
 21
296.46192893400939
  0
LINE
  8
_0-1_
  6
CONTINUOUS
 62
    7
 10
1560.850000000001
 20
296.46192893400939
 11
1560.850000000001
 21
295.96192893400939
  0
LINE
  8
_0-1_
  6
CONTINUOUS
 62
    7
 10
1560.850000000001
 20
295.96192893400939
 11
1560.850000000001
 21
289.96192893400939
  0
LINE
  8
_0-1_
  6
CONTINUOUS
 62
    7
 10
1560.850000000001
 20
289.96192893400939
 11
1560.850000000001
 21
288.46192893400939
  0
LINE
  8
_0-1_
  6
CONTINUOUS
 62
    7
 10
1560.850000000001
 20
288.46192893400939
 11
1560.850000000001
 21
287.2619289340094
  0
LINE
  8
_0-1_
  6
CONTINUOUS
 62
    7
 10
1560.850000000001
 20
287.2619289340094
 11
1560.850000000001
 21
285.66192893400949
  0
LINE
  8
_0-1_
  6
CONTINUOUS
 62
    7
 10
1560.850000000001
 20
285.66192893400949
 11
1560.850000000001
 21
283.91748893400938
  0
LINE
  8
_0-1_
  6
CONTINUOUS
 62
    7
 10
1560.850000000001
 20
283.91748893400938
 11
1560.850000000001
 21
282.91748893400938
  0
LINE
  8
_0-1_
  6
CONTINUOUS
 62
    7
 10
1560.850000000001
 20
282.91748893400938
 11
1560.850000000001
 21
282.80914893400938
  0
LINE
  8
_0-1_
  6
CONTINUOUS
 62
    7
 10
1560.850000000001
 20
282.80914893400938
 11
1560.850000000001
 21
281.71192893400939
  0
ARC
  8
_0-1_
  6
CONTINUOUS
 62
    7
 10
1560.1000192758378
 20
281.7119271526829
 40
0.7499807241643591
 50
289.81898599294947
 51
0.0001360868235102
  0
ARC
  8
_0-1_
  6
CONTINUOUS
 62
    7
 10
1560.099999990565
 20
281.71174225982491
 40
0.7498133258155007
 50
270.00000072093666
 51
289.82516255165234
  0
ARC
  8
_0-1_
  6
CONTINUOUS
 62
    7
 10
1560.0999994396941
 20
281.71192837370296
 40
0.7499994396938216
 50
179.99995719571299
 51
270.00004280428697
  0
LINE
  8
_0-1_
  6
CONTINUOUS
 62
    7
 10
1559.3499999999999
 20
281.71192893400939
 11
1559.3499999999999
 21
282.80914893400938
  0
LINE
  8
_0-1_
  6
CONTINUOUS
 62
    7
 10
1559.3499999999999
 20
282.80914893400938
 11
1559.3499999999999
 21
282.91748893400938
  0
LINE
  8
_0-1_
  6
CONTINUOUS
 62
    7
 10
1559.3499999999999
 20
282.91748893400938
 11
1559.3499999999999
 21
283.91748893400938
  0
LINE
  8
_0-1_
  6
CONTINUOUS
 62
    7
 10
1559.3499999999999
 20
283.91748893400938
 11
1559.3499999999999
 21
287.2619289340094
  0
LINE
  8
_0-1_
  6
CONTINUOUS
 62
    7
 10
1559.3499999999999
 20
287.2619289340094
 11
1559.3499999999999
 21
288.46192893400939
  0
LINE
  8
_0-1_
  6
CONTINUOUS
 62
    7
 10
1559.3499999999999
 20
288.46192893400939
 11
1559.3499999999999
 21
289.96192893400939
  0
LINE
  8
_0-1_
  6
CONTINUOUS
 62
    7
 10
1559.3499999999999
 20
289.96192893400939
 11
1559.3499999999999
 21
295.96192893400939
  0
LINE
  8
_0-1_
  6
CONTINUOUS
 62
    7
 10
1559.3499999999999
 20
295.96192893400939
 11
1559.3499999999999
 21
296.46192893400939
  0
LINE
  8
_0-1_
  6
CONTINUOUS
 62
    7
 10
1559.3499999999999
 20
296.46192893400939
 11
1559.3499999999999
 21
301.16192893400949
  0
LINE
  8
_0-1_
  6
CONTINUOUS
 62
    7
 10
1559.3499999999999
 20
301.16192893400949
 11
1559.3499999999999
 21
301.91748893400938
  0
LINE
  8
_0-1_
  6
CONTINUOUS
 62
    7
 10
1558.3499999999999
 20
283.46192893400939
 11
1558.3499999999999
 21
286.96192893400939
  0
LINE
  8
_0-1_
  6
CONTINUOUS
 62
    7
 10
1557.3499999999999
 20
283.46192893400939
 11
1558.3499999999999
 21
283.46192893400939
  0
LINE
  8
_0-1_
  6
CONTINUOUS
 62
    7
 10
1555.3499999999999
 20
283.46192893400939
 11
1557.3499999999999
 21
283.46192893400939
  0
LINE
  8
_0-1_
  6
CONTINUOUS
 62
    7
 10
1554.350000000001
 20
286.96192893400939
 11
1554.350000000001
 21
283.46192893400939
  0
LINE
  8
_0-1_
  6
CONTINUOUS
 62
    7
 10
1554.350000000001
 20
283.46192893400939
 11
1555.3499999999999
 21
283.46192893400939
  0
LINE
  8
_0-1_
  6
CONTINUOUS
 62
    7
 10
1552.7999999999999
 20
286.96192893400939
 11
1559.3499999999999
 21
286.96192893400939
  0
POINT
  8
_0-4_
 62
    7
 10
1527.3499999999999
 20
323.46192893400939
  0
POINT
  8
_0-4_
 62
    7
 10
1620
 20
283.46192893400939
  0
POINT
  8
_0-4_
 62
    7
 10
1620
 20
278.66192893400949
  0
LINE
  8
_0-4_
  6
CONTINUOUS
 62
    7
 10
1620
 20
283.46192893400939
 11
1610
 21
283.46192893400939
  0
LINE
  8
_0-4_
  6
CONTINUOUS
 62
    7
 10
1620
 20
278.66192893400949
 11
1610
 21
278.66192893400949
  0
LINE
  8
_0-4_
  6
CONTINUOUS
 62
    7
 10
1620
 20
283.46192893400939
 11
1620
 21
278.66192893400949
  0
TEXT
  8
_0-4_
 62
    7
 10
1620
 20
268.06192893400941
 40
16
 41
1
 50
90
  1
4.8
  0
LINE
  8
_0-f_
  6
CONTINUOUS
 62
    7
 10
300
 20
143.46192893401018
 11
1400
 21
143.46192893401018
  0
LINE
  8
_0-f_
  6
CONTINUOUS
 62
    7
 10
1400
 20
70.811928934010211
 11
300
 21
70.811928934010211
  0
LINE
  8
_0-f_
  6
CONTINUOUS
 62
    7
 10
1400
 20
106.1119289340101
 11
300
 21
106.1119289340101
  0
LINE
  8
_0-f_
  6
CONTINUOUS
 62
    7
 10
1400
 20
97.111928934010165
 11
300
 21
97.111928934010165
  0
LINE
  8
_0-f_
  6
CONTINUOUS
 62
    7
 10
1400
 20
94.611928934010165
 11
300
 21
94.611928934010165
  0
LINE
  8
_0-f_
  6
CONTINUOUS
 62
    7
 10
1400
 20
85.611928934010165
 11
300
 21
85.611928934010165
  0
LINE
  8
_0-f_
  6
CONTINUOUS
 62
    7
 10
1400
 20
83.111928934010165
 11
300
 21
83.111928934010165
  0
LINE
  8
_0-f_
  6
CONTINUOUS
 62
    7
 10
1400
 20
74.111928934010165
 11
300
 21
74.111928934010165
  0
LINE
  8
_0-f_
  6
CONTINUOUS
 62
    7
 10
1400
 20
71.611928934010165
 11
300
 21
71.611928934010165
  0
LINE
  8
_0-1_
  6
CONTINUOUS
 62
    7
 10
686.66666666666878
 20
95.511928934010029
 11
686.66666666666878
 21
104.31192893400998
  0
LINE
  8
_0-1_
  6
CONTINUOUS
 62
    7
 10
686.66666666666878
 20
97.011928934010029
 11
686.66666666666878
 21
102.81192893401021
  0
LINE
  8
_0-1_
  6
CONTINUOUS
 62
    7
 10
686.66666666666878
 20
95.511928934010029
 11
687.86666666666872
 21
95.511928934010029
  0
LINE
  8
_0-1_
  6
CONTINUOUS
 62
    7
 10
687.86666666666872
 20
95.511928934010029
 11
687.86666666666872
 21
104.31192893400998
  0
LINE
  8
_0-1_
  6
CONTINUOUS
 62
    7
 10
687.86666666666872
 20
104.31192893400998
 11
686.66666666666878
 21
104.31192893400998
  0
LINE
  8
_0-1_
  6
CONTINUOUS
 62
    7
 10
686.66666666666878
 20
104.31192893400998
 11
686.66666666666878
 21
95.511928934010029
  0
LINE
  8
_0-1_
  6
CONTINUOUS
 62
    7
 10
686.66666666666878
 20
102.81192893401021
 11
485.83333333333462
 21
102.81192893401021
  0
LINE
  8
_0-1_
  6
CONTINUOUS
 62
    7
 10
686.66666666666878
 20
104.31192893400998
 11
485.83333333333462
 21
104.31192893400998
  0
LINE
  8
_0-1_
  6
CONTINUOUS
 62
    7
 10
485.83333333333462
 20
95.511928934010029
 11
686.66666666666878
 21
95.511928934010029
  0
LINE
  8
_0-1_
  6
CONTINUOUS
 62
    7
 10
485.83333333333462
 20
97.011928934010029
 11
686.66666666666878
 21
97.011928934010029
  0
LINE
  8
_0-1_
  6
CONTINUOUS
 62
    7
 10
301.20000000000072
 20
104.31192893400998
 11
301.20000000000072
 21
95.511928934010086
  0
LINE
  8
_0-1_
  6
CONTINUOUS
 62
    7
 10
301.20000000000072
 20
102.81192893401021
 11
301.20000000000072
 21
97.011928934010086
  0
LINE
  8
_0-1_
  6
CONTINUOUS
 62
    7
 10
301.20000000000072
 20
95.511928934010086
 11
299.99999999999977
 21
95.511928934010086
  0
LINE
  8
_0-1_
  6
CONTINUOUS
 62
    7
 10
299.99999999999977
 20
95.511928934010086
 11
299.99999999999977
 21
104.31192893400998
  0
LINE
  8
_0-1_
  6
CONTINUOUS
 62
    7
 10
299.99999999999977
 20
104.31192893400998
 11
301.20000000000072
 21
104.31192893400998
  0
LINE
  8
_0-1_
  6
CONTINUOUS
 62
    7
 10
301.20000000000072
 20
104.31192893400998
 11
301.20000000000072
 21
95.511928934010086
  0
LINE
  8
_0-1_
  6
CONTINUOUS
 62
    7
 10
301.20000000000072
 20
97.011928934010086
 11
480.8333333333357
 21
97.011928934010029
  0
LINE
  8
_0-1_
  6
CONTINUOUS
 62
    7
 10
301.20000000000072
 20
95.511928934010086
 11
480.8333333333357
 21
95.511928934010029
  0
LINE
  8
_0-1_
  6
CONTINUOUS
 62
    7
 10
480.8333333333357
 20
102.81192893401021
 11
301.20000000000072
 21
102.81192893401021
  0
LINE
  8
_0-1_
  6
CONTINUOUS
 62
    7
 10
480.8333333333357
 20
104.31192893400998
 11
301.20000000000072
 21
104.31192893400998
  0
LINE
  8
_0-1_
  6
CONTINUOUS
 62
    7
 10
1013.333333333334
 20
81.311928934009984
 11
1013.333333333334
 21
72.511928934010029
  0
LINE
  8
_0-1_
  6
CONTINUOUS
 62
    7
 10
1013.333333333334
 20
79.811928934010211
 11
1013.333333333334
 21
74.011928934010029
  0
LINE
  8
_0-1_
  6
CONTINUOUS
 62
    7
 10
1013.333333333334
 20
72.511928934010029
 11
1012.1333333333329
 21
72.511928934010029
  0
LINE
  8
_0-1_
  6
CONTINUOUS
 62
    7
 10
1012.1333333333329
 20
72.511928934010029
 11
1012.1333333333329
 21
81.311928934009984
  0
LINE
  8
_0-1_
  6
CONTINUOUS
 62
    7
 10
1012.1333333333329
 20
81.311928934009984
 11
1013.333333333334
 21
81.311928934009984
  0
LINE
  8
_0-1_
  6
CONTINUOUS
 62
    7
 10
1013.333333333334
 20
81.311928934009984
 11
1013.333333333334
 21
72.511928934010029
  0
LINE
  8
_0-1_
  6
CONTINUOUS
 62
    7
 10
1013.333333333334
 20
74.011928934010029
 11
1214.1666666666669
 21
74.011928934010029
  0
LINE
  8
_0-1_
  6
CONTINUOUS
 62
    7
 10
1013.333333333334
 20
72.511928934010029
 11
1214.1666666666669
 21
72.511928934010029
  0
LINE
  8
_0-1_
  6
CONTINUOUS
 62
    7
 10
1214.1666666666669
 20
79.811928934010211
 11
1013.333333333334
 21
79.811928934010211
  0
LINE
  8
_0-1_
  6
CONTINUOUS
 62
    7
 10
1214.1666666666669
 20
81.311928934009984
 11
1013.333333333334
 21
81.311928934009984
  0
LINE
  8
_0-1_
  6
CONTINUOUS
 62
    7
 10
1398.7999999999999
 20
72.511928934010029
 11
1398.7999999999999
 21
81.31192893400987
  0
LINE
  8
_0-1_
  6
CONTINUOUS
 62
    7
 10
1398.7999999999999
 20
74.011928934010029
 11
1398.7999999999999
 21
79.811928934010211
  0
LINE
  8
_0-1_
  6
CONTINUOUS
 62
    7
 10
1398.7999999999999
 20
72.511928934010029
 11
1400
 21
72.511928934010029
  0
LINE
  8
_0-1_
  6
CONTINUOUS
 62
    7
 10
1400
 20
72.511928934010029
 11
1400
 21
81.31192893400987
  0
LINE
  8
_0-1_
  6
CONTINUOUS
 62
    7
 10
1400
 20
81.31192893400987
 11
1398.7999999999999
 21
81.31192893400987
  0
LINE
  8
_0-1_
  6
CONTINUOUS
 62
    7
 10
1398.7999999999999
 20
81.31192893400987
 11
1398.7999999999999
 21
72.511928934010029
  0
LINE
  8
_0-1_
  6
CONTINUOUS
 62
    7
 10
1398.7999999999999
 20
79.811928934010211
 11
1219.1666666666669
 21
79.811928934010211
  0
LINE
  8
_0-1_
  6
CONTINUOUS
 62
    7
 10
1398.7999999999999
 20
81.31192893400987
 11
1219.1666666666669
 21
81.311928934009984
  0
LINE
  8
_0-1_
  6
CONTINUOUS
 62
    7
 10
1219.1666666666669
 20
72.511928934010029
 11
1398.7999999999999
 21
72.511928934010029
  0
LINE
  8
_0-1_
  6
CONTINUOUS
 62
    7
 10
1219.1666666666669
 20
74.011928934010029
 11
1398.7999999999999
 21
74.011928934010029
  0
LINE
  8
_0-1_
  6
CONTINUOUS
 62
    7
 10
1053.333333333333
 20
84.011928934009915
 11
1053.333333333333
 21
92.811928934009984
  0
LINE
  8
_0-1_
  6
CONTINUOUS
 62
    7
 10
1053.333333333333
 20
85.511928934010029
 11
1053.333333333333
 21
91.311928934010154
  0
LINE
  8
_0-1_
  6
CONTINUOUS
 62
    7
 10
1053.333333333333
 20
84.011928934009915
 11
1054.533333333333
 21
84.011928934009915
  0
LINE
  8
_0-1_
  6
CONTINUOUS
 62
    7
 10
1054.533333333333
 20
84.011928934009915
 11
1054.533333333333
 21
92.811928934009984
  0
LINE
  8
_0-1_
  6
CONTINUOUS
 62
    7
 10
1054.533333333333
 20
92.811928934009984
 11
1053.333333333333
 21
92.811928934009984
  0
LINE
  8
_0-1_
  6
CONTINUOUS
 62
    7
 10
1053.333333333333
 20
92.811928934009984
 11
1053.333333333333
 21
84.011928934009915
  0
LINE
  8
_0-1_
  6
CONTINUOUS
 62
    7
 10
852.49999999999954
 20
84.011928934009915
 11
1053.333333333333
 21
84.011928934009915
  0
LINE
  8
_0-1_
  6
CONTINUOUS
 62
    7
 10
1053.333333333333
 20
92.811928934009984
 11
852.49999999999954
 21
92.811928934009984
  0
LINE
  8
_0-1_
  6
CONTINUOUS
 62
    7
 10
1053.333333333333
 20
91.311928934010154
 11
852.49999999999954
 21
91.311928934010211
  0
LINE
  8
_0-1_
  6
CONTINUOUS
 62
    7
 10
852.49999999999954
 20
85.511928934010029
 11
1053.333333333333
 21
85.511928934010029
  0
LINE
  8
_0-1_
  6
CONTINUOUS
 62
    7
 10
646.66666666666674
 20
92.811928934009984
 11
646.66666666666674
 21
84.011928934009972
  0
LINE
  8
_0-1_
  6
CONTINUOUS
 62
    7
 10
646.66666666666674
 20
91.311928934010211
 11
646.66666666666674
 21
85.511928934010029
  0
LINE
  8
_0-1_
  6
CONTINUOUS
 62
    7
 10
646.66666666666674
 20
84.011928934009972
 11
645.46666666666669
 21
84.011928934009972
  0
LINE
  8
_0-1_
  6
CONTINUOUS
 62
    7
 10
645.46666666666669
 20
84.011928934009972
 11
645.46666666666669
 21
92.811928934009984
  0
LINE
  8
_0-1_
  6
CONTINUOUS
 62
    7
 10
645.46666666666669
 20
92.811928934009984
 11
646.66666666666674
 21
92.811928934009984
  0
LINE
  8
_0-1_
  6
CONTINUOUS
 62
    7
 10
646.66666666666674
 20
92.811928934009984
 11
646.66666666666674
 21
84.011928934009972
  0
LINE
  8
_0-1_
  6
CONTINUOUS
 62
    7
 10
646.66666666666674
 20
84.011928934009972
 11
847.49999999999954
 21
84.011928934009915
  0
LINE
  8
_0-1_
  6
CONTINUOUS
 62
    7
 10
847.49999999999954
 20
92.811928934009984
 11
646.66666666666674
 21
92.811928934009984
  0
LINE
  8
_0-1_
  6
CONTINUOUS
 62
    7
 10
646.66666666666674
 20
85.511928934010029
 11
847.49999999999954
 21
85.511928934010029
  0
LINE
  8
_0-1_
  6
CONTINUOUS
 62
    7
 10
847.49999999999954
 20
91.311928934010211
 11
646.66666666666674
 21
91.311928934010211
  0
LINE
  8
_0-1_
  6
CONTINUOUS
 62
    7
 10
480.8333333333328
 20
70.811928934010325
 11
299.99999999999977
 21
70.811928934010325
  0
LINE
  8
_0-1_
  6
CONTINUOUS
 62
    7
 10
299.99999999999977
 20
79.811928934010325
 11
480.8333333333328
 21
79.811928934010211
  0
LINE
  8
_0-1_
  6
CONTINUOUS
 62
    7
 10
480.8333333333328
 20
82.311928934010268
 11
299.99999999999977
 21
82.311928934010268
  0
LINE
  8
_0-1_
  6
CONTINUOUS
 62
    7
 10
299.99999999999977
 20
91.311928934010268
 11
480.8333333333328
 21
91.311928934010211
  0
LINE
  8
_0-1_
  6
CONTINUOUS
 62
    7
 10
485.8333333333328
 20
91.311928934010211
 11
645.46666666666669
 21
91.311928934010211
  0
LINE
  8
_0-1_
  6
CONTINUOUS
 62
    7
 10
480.8333333333328
 20
93.811928934010211
 11
299.99999999999977
 21
93.811928934010268
  0
LINE
  8
_0-1_
  6
CONTINUOUS
 62
    7
 10
480.8333333333328
 20
105.31192893401021
 11
300.00000000000068
 21
105.31192893401026
  0
LINE
  8
_0-1_
  6
CONTINUOUS
 62
    7
 10
299.99999999999977
 20
106.11192893401016
 11
480.8333333333328
 21
106.11192893401016
  0
LINE
  8
_0-1_
  6
CONTINUOUS
 62
    7
 10
847.49999999999954
 20
70.811928934010211
 11
485.8333333333328
 21
70.811928934010325
  0
LINE
  8
_0-1_
  6
CONTINUOUS
 62
    7
 10
852.49999999999954
 20
79.811928934010211
 11
1012.1333333333329
 21
79.811928934010211
  0
LINE
  8
_0-1_
  6
CONTINUOUS
 62
    7
 10
847.49999999999954
 20
82.311928934010211
 11
485.8333333333328
 21
82.311928934010268
  0
LINE
  8
_0-1_
  6
CONTINUOUS
 62
    7
 10
847.49999999999954
 20
93.811928934010211
 11
485.8333333333328
 21
93.811928934010211
  0
LINE
  8
_0-1_
  6
CONTINUOUS
 62
    7
 10
687.86666666666872
 20
102.81192893401021
 11
847.49999999999954
 21
102.81192893401021
  0
LINE
  8
_0-1_
  6
CONTINUOUS
 62
    7
 10
847.49999999999954
 20
105.31192893401021
 11
485.8333333333328
 21
105.31192893401021
  0
LINE
  8
_0-1_
  6
CONTINUOUS
 62
    7
 10
485.8333333333328
 20
106.11192893401016
 11
847.49999999999954
 21
106.1119289340101
  0
LINE
  8
_0-1_
  6
CONTINUOUS
 62
    7
 10
1400
 20
70.811928934010211
 11
1219.166666666666
 21
70.811928934010211
  0
LINE
  8
_0-1_
  6
CONTINUOUS
 62
    7
 10
1400
 20
82.311928934010154
 11
1219.166666666666
 21
82.311928934010211
  0
LINE
  8
_0-1_
  6
CONTINUOUS
 62
    7
 10
1214.166666666666
 20
82.311928934010211
 11
1036.8333666666669
 21
82.311928934010211
  0
LINE
  8
_0-1_
  6
CONTINUOUS
 62
    7
 10
1054.533333333333
 20
91.311928934010154
 11
1214.166666666666
 21
91.311928934010154
  0
LINE
  8
_0-1_
  6
CONTINUOUS
 62
    7
 10
1219.166666666666
 20
91.311928934010154
 11
1400
 21
91.311928934010154
  0
LINE
  8
_0-1_
  6
CONTINUOUS
 62
    7
 10
1400
 20
93.811928934010154
 11
1219.166666666666
 21
93.811928934010154
  0
LINE
  8
_0-1_
  6
CONTINUOUS
 62
    7
 10
1214.166666666666
 20
93.811928934010154
 11
852.49999999999954
 21
93.811928934010211
  0
LINE
  8
_0-1_
  6
CONTINUOUS
 62
    7
 10
852.49999999999954
 20
102.81192893401021
 11
1214.166666666666
 21
102.81192893401009
  0
LINE
  8
_0-1_
  6
CONTINUOUS
 62
    7
 10
1219.166666666666
 20
102.81192893401009
 11
1400
 21
102.81192893401009
  0
LINE
  8
_0-1_
  6
CONTINUOUS
 62
    7
 10
1400
 20
105.31192893401009
 11
1219.166666666666
 21
105.31192893401009
  0
LINE
  8
_0-1_
  6
CONTINUOUS
 62
    7
 10
1214.166666666666
 20
105.31192893401009
 11
852.49999999999954
 21
105.31192893401021
  0
LINE
  8
_0-1_
  6
CONTINUOUS
 62
    7
 10
852.49999999999954
 20
106.1119289340101
 11
1214.166666666666
 21
106.1119289340101
  0
LINE
  8
_0-1_
  6
CONTINUOUS
 62
    7
 10
1219.166666666666
 20
106.1119289340101
 11
1399.999999999999
 21
106.1119289340101
  0
LINE
  8
_0-1_
  6
CONTINUOUS
 62
    7
 10
646.66666666666674
 20
283.46192893400939
 11
646.66666666666674
 21
328.16192893400921
  0
LINE
  8
_0-1_
  6
CONTINUOUS
 62
    7
 10
1013.333333333333
 20
283.46192893400939
 11
1013.333333333333
 21
328.16192893400921
  0
LINE
  8
_0-1_
  6
CONTINUOUS
 62
    7
 10
1400
 20
328.16192893400921
 11
1219.1666666666669
 21
328.16192893400921
  0
LINE
  8
_0-1_
  6
CONTINUOUS
 62
    7
 10
480.83333333333308
 20
328.16192893400921
 11
300
 21
328.16192893400921
  0
LINE
  8
_0-1_
  6
CONTINUOUS
 62
    7
 10
847.49999999999988
 20
328.16192893400921
 11
485.8333333333332
 21
328.16192893400921
  0
LINE
  8
_0-1_
  6
CONTINUOUS
 62
    7
 10
1214.1666666666669
 20
328.16192893400921
 11
852.5
 21
328.16192893400921
  0
LINE
  8
_0-1_
  6
CONTINUOUS
 62
    7
 10
301.20000000000004
 20
283.46192893400939
 11
301.20000000000004
 21
328.16192893400921
  0
LINE
  8
_0-1_
  6
CONTINUOUS
 62
    7
 10
1398.7999999999999
 20
328.16192893400921
 11
1398.7999999999999
 21
283.46192893400939
  0
LINE
  8
_0-1_
  6
CONTINUOUS
 62
    7
 10
301.20000000000004
 20
286.96192893400939
 11
300
 21
286.96192893400939
  0
LINE
  8
_0-1_
  6
CONTINUOUS
 62
    7
 10
646.66666666666674
 20
286.96192893400939
 11
645.46666666666669
 21
286.96192893400939
  0
LINE
  8
_0-1_
  6
CONTINUOUS
 62
    7
 10
645.46666666666669
 20
286.96192893400939
 11
645.46666666666669
 21
328.16192893400921
  0
LINE
  8
_0-1_
  6
CONTINUOUS
 62
    7
 10
1013.333333333333
 20
286.96192893400939
 11
1012.1333333333329
 21
286.96192893400939
  0
LINE
  8
_0-1_
  6
CONTINUOUS
 62
    7
 10
1012.1333333333329
 20
286.96192893400939
 11
1012.1333333333329
 21
328.16192893400921
  0
LINE
  8
_0-1_
  6
CONTINUOUS
 62
    7
 10
1400
 20
286.96192893400939
 11
1398.7999999999999
 21
286.96192893400939
  0
TEXT
  8
_0-0_
 62
    7
 10
270
 20
225.46192893400939
 40
16
 41
1
 50
0
  1
正面図
  0
TEXT
  8
_0-0_
 62
    7
 10
300
 20
143.46192893401018
 40
16
 41
1
 50
0
  1
横断面図
  0
TEXT
  8
_0-0_
 62
    7
 10
852.5
 20
134.52791878172592
 40
10
 41
1
 50
0
  1
表
  0
TEXT
  8
_0-0_
 62
    7
 10
852.5
 20
52.477157360406067
 40
10
 41
1
 50
0
  1
裏
  0
TEXT
  8
_0-0_
 62
    7
 10
1489
 20
1057.4619289340093
 40
16
 41
1
 50
0
  1
縦断面図
  0
TEXT
  8
_0-0_
 62
    7
 10
1476
 20
343.46192893400939
 40
10
 41
1
 50
0
  1
裏
  0
TEXT
  8
_0-0_
 62
    7
 10
1586
 20
343.46192893400927
 40
10
 41
1
 50
0
  1
表
  0
LINE
  8
_0-1_
  6
CONTINUOUS
 62
    7
 10
1549.3499999999999
 20
320.56194820455118
 11
1549.3499999999999
 21
302.36194820455091
  0
LINE
  8
_0-1_
  6
CONTINUOUS
 62
    7
 10
1549.3499999999999
 20
314.96194820455076
 11
1549.3499999999999
 21
307.96194820455099
  0
LINE
  8
_0-1_
  6
CONTINUOUS
 62
    7
 10
663.16666666666674
 20
93.811928934010211
 11
485.8333333333328
 21
93.811928934010211
  0
LINE
  8
_0-1_
  6
CONTINUOUS
 62
    7
 10
485.8333333333328
 20
79.811928934010211
 11
847.49999999999954
 21
79.811928934010211
  0
LINE
  8
_0-1_
  6
CONTINUOUS
 62
    7
 10
1214.166666666666
 20
70.811928934010211
 11
852.49999999999954
 21
70.811928934010211
  0
LINE
  8
_0-1_
  6
CONTINUOUS
 62
    7
 10
1029.8333666666669
 20
82.311928934010211
 11
852.49999999999954
 21
82.311928934010211
  0
INSERT
  2
-000-_D15
  8
_0-4_
 10
0
 20
1.4619289340101886
 41
1
 42
1
 50
0
  0
INSERT
  2
-001-_D16
  8
_0-4_
 10
0
 20
1.4619289340101886
 41
1
 42
1
 50
0
  0
INSERT
  2
-002-_D20
  8
_0-4_
 10
0
 20
1.4619289340101886
 41
1
 42
1
 50
0
  0
INSERT
  2
-003-_D24
  8
_0-4_
 10
0
 20
1.4619289340101886
 41
1
 42
1
 50
0
  0
POINT
  8
_0-4_
 62
    7
 10
180
 20
1057.4619289340103
  0
POINT
  8
_0-4_
 62
    7
 10
180
 20
1040.4619289340103
  0
LINE
  8
_0-4_
  6
CONTINUOUS
 62
    7
 10
180
 20
1057.4619289340103
 11
160
 21
1057.4619289340103
  0
LINE
  8
_0-4_
  6
CONTINUOUS
 62
    7
 10
180
 20
1040.4619289340103
 11
160
 21
1040.4619289340103
  0
LINE
  8
_0-4_
  6
CONTINUOUS
 62
    7
 10
180
 20
1057.4619289340103
 11
180
 21
1040.4619289340103
  0
TEXT
  8
_0-4_
 62
    7
 10
180
 20
1031.4619289340103
 40
16
 41
1
 50
90
  1
17.0
  0
INSERT
  2
-004-_D27
  8
_0-4_
 10
0
 20
1.4619289340101886
 41
1
 42
1
 50
0
  0
LINE
  8
_0-1_
  6
CONTINUOUS
 62
    7
 10
1542.0499999999999
 20
302.3619135803791
 11
1547.8499999999999
 21
302.3619135803791
  0
ARC
  8
_0-1_
  6
CONTINUOUS
 62
    7
 10
1539.249999999999
 20
931.96192893400939
 40
0.300000000000155
 50
89.993458731819814
 51
179.99999999994605
  0
LINE
  8
_0-1_
  6
CONTINUOUS
 62
    7
 10
1538.9499999999989
 20
931.96192893400973
 11
1538.9499999999989
 21
917.46192834933071
  0
LINE
  8
_0-1_
  6
CONTINUOUS
 62
    7
 10
1538.9499999999989
 20
917.46192834933071
 11
1538.3499999999989
 21
917.46192834933071
  0
LINE
  8
_0-1_
  6
CONTINUOUS
 62
    7
 10
1538.3499999999989
 20
917.46192834933071
 11
1538.3499999999989
 21
931.96192893400973
  0
ARC
  8
_0-1_
  6
CONTINUOUS
 62
    7
 10
1539.249999999999
 20
931.96192893400984
 40
0.9000000000001406
 50
90.000000000003183
 51
180.00000000000406
  0
LINE
  8
_0-1_
  6
CONTINUOUS
 62
    7
 10
1539.249999999999
 20
932.86192893400993
 11
1550.6499999999989
 21
932.86192893400993
  0
ARC
  8
_0-1_
  6
CONTINUOUS
 62
    7
 10
1550.6499999999989
 20
931.96192893400984
 40
0.9000000000001404
 50
359.9999999999959
 51
89.999999999996845
  0
LINE
  8
_0-1_
  6
CONTINUOUS
 62
    7
 10
1551.549999999999
 20
931.96192893400973
 11
1551.549999999999
 21
917.46192834933071
  0
LINE
  8
_0-1_
  6
CONTINUOUS
 62
    7
 10
1551.549999999999
 20
917.46192834933071
 11
1550.9499999999989
 21
917.46192834933071
  0
LINE
  8
_0-1_
  6
CONTINUOUS
 62
    7
 10
1550.9499999999989
 20
917.46192834933071
 11
1550.9499999999989
 21
931.96196259737587
  0
ARC
  8
_0-1_
  6
CONTINUOUS
 62
    7
 10
1550.6499999999994
 20
931.96196259737553
 40
0.2999999999994586
 50
0.0000000000512705
 51
89.993458731919645
  0
LINE
  8
_0-1_
  6
CONTINUOUS
 62
    7
 10
1550.6500342499989
 20
932.26196259541995
 11
1539.250034249999
 21
932.26192893401082
  0
LINE
  8
_0-1_
  6
CONTINUOUS
 62
    7
 10
1539.1000342499989
 20
931.88694576471573
 11
1539.1000342499989
 21
919.811945764715
  0
ARC
  8
_0-1_
  6
CONTINUOUS
 62
    7
 10
1539.3500342499989
 20
919.811945764715
 40
0.2499999999999553
 50
179.99999999999749
 51
329.99999999999698
  0
LINE
  8
_0-1_
  6
CONTINUOUS
 62
    7
 10
1539.566540600945
 20
919.686945764715
 11
1543.441540600945
 21
926.39864264404479
  0
LINE
  8
_0-1_
  6
CONTINUOUS
 62
    7
 10
1543.441540600945
 20
926.39864264404479
 11
1543.2250342499989
 21
926.52364264404502
  0
LINE
  8
_0-1_
  6
CONTINUOUS
 62
    7
 10
1543.2250342499989
 20
926.52364264404502
 11
1539.3500342499989
 21
919.811945764715
  0
LINE
  8
_0-1_
  6
CONTINUOUS
 62
    7
 10
1539.3500342499989
 20
919.811945764715
 11
1539.3500342499989
 21
931.88694576471573
  0
ARC
  8
_0-1_
  6
CONTINUOUS
 62
    7
 10
1539.4750342499985
 20
931.88694576471527
 40
0.1249999999995452
 50
89.99999999979154
 51
179.99999999979155
  0
LINE
  8
_0-1_
  6
CONTINUOUS
 62
    7
 10
1539.4750342499989
 20
932.01194576471482
 11
1550.425034249999
 21
932.01194576471482
  0
ARC
  8
_0-1_
  6
CONTINUOUS
 62
    7
 10
1550.4250342499994
 20
931.88694576471527
 40
0.1249999999995452
 50
0.0000000002084281
 51
90.000000000208444
  0
LINE
  8
_0-1_
  6
CONTINUOUS
 62
    7
 10
1550.550034249999
 20
931.88694576471573
 11
1550.550034249999
 21
919.811945764715
  0
LINE
  8
_0-1_
  6
CONTINUOUS
 62
    7
 10
1550.550034249999
 20
919.811945764715
 11
1546.675034249999
 21
926.52364264404502
  0
LINE
  8
_0-1_
  6
CONTINUOUS
 62
    7
 10
1546.675034249999
 20
926.52364264404502
 11
1546.458527899053
 21
926.39864264404479
  0
LINE
  8
_0-1_
  6
CONTINUOUS
 62
    7
 10
1546.458527899053
 20
926.39864264404479
 11
1550.333527899053
 21
919.686945764715
  0
ARC
  8
_0-1_
  6
CONTINUOUS
 62
    7
 10
1550.550034249999
 20
919.811945764715
 40
0.2499999999999555
 50
210.00000000000321
 51
0.0000000000023154
  0
LINE
  8
_0-1_
  6
CONTINUOUS
 62
    7
 10
1550.800034249999
 20
919.811945764715
 11
1550.800034249999
 21
931.88694576471573
  0
ARC
  8
_0-1_
  6
CONTINUOUS
 62
    7
 10
1550.425034249999
 20
931.88694576471573
 40
0.375
 50
0
 51
90.000000000000014
  0
LINE
  8
_0-1_
  6
CONTINUOUS
 62
    7
 10
1550.425034249999
 20
932.26194576471573
 11
1539.4750342499989
 21
932.26194576471573
  0
LINE
  8
_0-1_
  6
CONTINUOUS
 62
    7
 10
1539.4750342499989
 20
932.26194576471573
 11
1539.1000342499989
 21
931.88694576471573
  0
ARC
  8
_0-1_
  6
CONTINUOUS
 62
    7
 10
1526.0499999999992
 20
931.96192893400962
 40
0.3000000000000413
 50
89.993458731841499
 51
179.99999999996774
  0
LINE
  8
_0-1_
  6
CONTINUOUS
 62
    7
 10
1525.749999999999
 20
931.96192893400973
 11
1525.749999999999
 21
917.46192834933071
  0
LINE
  8
_0-1_
  6
CONTINUOUS
 62
    7
 10
1525.749999999999
 20
917.46192834933071
 11
1525.1499999999989
 21
917.46192834933071
  0
LINE
  8
_0-1_
  6
CONTINUOUS
 62
    7
 10
1525.1499999999989
 20
917.46192834933071
 11
1525.1499999999989
 21
931.96192893400973
  0
ARC
  8
_0-1_
  6
CONTINUOUS
 62
    7
 10
1526.049999999999
 20
931.96192893400984
 40
0.9000000000001406
 50
90.000000000003183
 51
180.00000000000406
  0
LINE
  8
_0-1_
  6
CONTINUOUS
 62
    7
 10
1526.049999999999
 20
932.86192893400993
 11
1537.4499999999989
 21
932.86192893400993
  0
ARC
  8
_0-1_
  6
CONTINUOUS
 62
    7
 10
1537.4499999999989
 20
931.96192893400984
 40
0.9000000000001404
 50
359.9999999999959
 51
89.999999999996845
  0
LINE
  8
_0-1_
  6
CONTINUOUS
 62
    7
 10
1538.3499999999989
 20
931.96192893400973
 11
1538.3499999999989
 21
917.46192834933071
  0
LINE
  8
_0-1_
  6
CONTINUOUS
 62
    7
 10
1538.3499999999989
 20
917.46192834933071
 11
1537.749999999999
 21
917.46192834933071
  0
LINE
  8
_0-1_
  6
CONTINUOUS
 62
    7
 10
1537.749999999999
 20
917.46192834933071
 11
1537.749999999999
 21
931.96196259737587
  0
ARC
  8
_0-1_
  6
CONTINUOUS
 62
    7
 10
1537.4499999999993
 20
931.96196259737553
 40
0.2999999999995723
 50
0.0000000000729746
 51
89.993458731941345
  0
LINE
  8
_0-1_
  6
CONTINUOUS
 62
    7
 10
1537.4500342499989
 20
932.26196259541995
 11
1526.050034249999
 21
932.26192893401082
  0
LINE
  8
_0-1_
  6
CONTINUOUS
 62
    7
 10
1525.9000342499989
 20
931.88694576471573
 11
1525.9000342499989
 21
919.811945764715
  0
ARC
  8
_0-1_
  6
CONTINUOUS
 62
    7
 10
1526.1500342499989
 20
919.811945764715
 40
0.2499999999999553
 50
179.99999999999749
 51
329.99999999999698
  0
LINE
  8
_0-1_
  6
CONTINUOUS
 62
    7
 10
1526.3665406009449
 20
919.686945764715
 11
1530.2415406009449
 21
926.39864264404479
  0
LINE
  8
_0-1_
  6
CONTINUOUS
 62
    7
 10
1530.2415406009449
 20
926.39864264404479
 11
1530.0250342499989
 21
926.52364264404502
  0
LINE
  8
_0-1_
  6
CONTINUOUS
 62
    7
 10
1530.0250342499989
 20
926.52364264404502
 11
1526.1500342499989
 21
919.811945764715
  0
LINE
  8
_0-1_
  6
CONTINUOUS
 62
    7
 10
1526.1500342499989
 20
919.811945764715
 11
1526.1500342499989
 21
931.88694576471573
  0
ARC
  8
_0-1_
  6
CONTINUOUS
 62
    7
 10
1526.2750342499984
 20
931.88694576471527
 40
0.1249999999995452
 50
89.99999999979154
 51
179.99999999979155
  0
LINE
  8
_0-1_
  6
CONTINUOUS
 62
    7
 10
1526.2750342499989
 20
932.01194576471482
 11
1537.2250342499989
 21
932.01194576471482
  0
ARC
  8
_0-1_
  6
CONTINUOUS
 62
    7
 10
1537.2250342499994
 20
931.88694576471527
 40
0.1249999999995452
 50
0.0000000002084281
 51
90.000000000208444
  0
LINE
  8
_0-1_
  6
CONTINUOUS
 62
    7
 10
1537.3500342499989
 20
931.88694576471573
 11
1537.3500342499989
 21
919.811945764715
  0
LINE
  8
_0-1_
  6
CONTINUOUS
 62
    7
 10
1537.3500342499989
 20
919.811945764715
 11
1533.4750342499989
 21
926.52364264404502
  0
LINE
  8
_0-1_
  6
CONTINUOUS
 62
    7
 10
1533.4750342499989
 20
926.52364264404502
 11
1533.2585278990529
 21
926.39864264404479
  0
LINE
  8
_0-1_
  6
CONTINUOUS
 62
    7
 10
1533.2585278990529
 20
926.39864264404479
 11
1537.1335278990529
 21
919.686945764715
  0
ARC
  8
_0-1_
  6
CONTINUOUS
 62
    7
 10
1537.3500342499989
 20
919.811945764715
 40
0.2499999999999555
 50
210.00000000000321
 51
0.0000000000023154
  0
LINE
  8
_0-1_
  6
CONTINUOUS
 62
    7
 10
1537.6000342499989
 20
919.811945764715
 11
1537.6000342499989
 21
931.88694576471573
  0
ARC
  8
_0-1_
  6
CONTINUOUS
 62
    7
 10
1537.2250342499989
 20
931.88694576471573
 40
0.375
 50
0
 51
90.000000000000014
  0
LINE
  8
_0-1_
  6
CONTINUOUS
 62
    7
 10
1537.2250342499989
 20
932.26194576471573
 11
1526.2750342499989
 21
932.26194576471573
  0
LINE
  8
_0-1_
  6
CONTINUOUS
 62
    7
 10
1526.2750342499989
 20
932.26194576471573
 11
1525.9000342499989
 21
931.88694576471573
  0
ARC
  8
_0-1_
  6
CONTINUOUS
 62
    7
 10
1552.4499999999989
 20
931.96192893400962
 40
0.3000000000000413
 50
89.993458731841499
 51
179.99999999996774
  0
LINE
  8
_0-1_
  6
CONTINUOUS
 62
    7
 10
1552.1499999999989
 20
931.96192893400973
 11
1552.1499999999989
 21
917.46192834933071
  0
LINE
  8
_0-1_
  6
CONTINUOUS
 62
    7
 10
1552.1499999999989
 20
917.46192834933071
 11
1551.549999999999
 21
917.46192834933071
  0
LINE
  8
_0-1_
  6
CONTINUOUS
 62
    7
 10
1551.549999999999
 20
917.46192834933071
 11
1551.549999999999
 21
931.96192893400973
  0
ARC
  8
_0-1_
  6
CONTINUOUS
 62
    7
 10
1552.4499999999989
 20
931.96192893400984
 40
0.9000000000000272
 50
90.000000000010459
 51
180.00000000001131
  0
LINE
  8
_0-1_
  6
CONTINUOUS
 62
    7
 10
1552.4499999999989
 20
932.86192893400993
 11
1563.8499999999989
 21
932.86192893400993
  0
ARC
  8
_0-1_
  6
CONTINUOUS
 62
    7
 10
1563.8499999999989
 20
931.96192893400984
 40
0.9000000000001404
 50
359.9999999999959
 51
89.999999999996845
  0
LINE
  8
_0-1_
  6
CONTINUOUS
 62
    7
 10
1564.749999999999
 20
931.96192893400973
 11
1564.749999999999
 21
917.46192834933071
  0
LINE
  8
_0-1_
  6
CONTINUOUS
 62
    7
 10
1564.749999999999
 20
917.46192834933071
 11
1564.1499999999989
 21
917.46192834933071
  0
LINE
  8
_0-1_
  6
CONTINUOUS
 62
    7
 10
1564.1499999999989
 20
917.46192834933071
 11
1564.1499999999989
 21
931.96196259737587
  0
ARC
  8
_0-1_
  6
CONTINUOUS
 62
    7
 10
1563.8499999999994
 20
931.96196259737553
 40
0.2999999999994586
 50
0.0000000000512705
 51
89.993458731919645
  0
LINE
  8
_0-1_
  6
CONTINUOUS
 62
    7
 10
1563.8500342499989
 20
932.26196259541995
 11
1552.4500342499989
 21
932.26192893401082
  0
LINE
  8
_0-1_
  6
CONTINUOUS
 62
    7
 10
1552.300034249999
 20
931.88694576471573
 11
1552.300034249999
 21
919.811945764715
  0
ARC
  8
_0-1_
  6
CONTINUOUS
 62
    7
 10
1552.550034249999
 20
919.811945764715
 40
0.2499999999999553
 50
179.99999999999749
 51
329.99999999999698
  0
LINE
  8
_0-1_
  6
CONTINUOUS
 62
    7
 10
1552.766540600945
 20
919.686945764715
 11
1556.641540600945
 21
926.39864264404479
  0
LINE
  8
_0-1_
  6
CONTINUOUS
 62
    7
 10
1556.641540600945
 20
926.39864264404479
 11
1556.425034249999
 21
926.52364264404502
  0
LINE
  8
_0-1_
  6
CONTINUOUS
 62
    7
 10
1556.425034249999
 20
926.52364264404502
 11
1552.550034249999
 21
919.811945764715
  0
LINE
  8
_0-1_
  6
CONTINUOUS
 62
    7
 10
1552.550034249999
 20
919.811945764715
 11
1552.550034249999
 21
931.88694576471573
  0
ARC
  8
_0-1_
  6
CONTINUOUS
 62
    7
 10
1552.6750342499985
 20
931.88694576471527
 40
0.1249999999995452
 50
89.99999999979154
 51
179.99999999979155
  0
LINE
  8
_0-1_
  6
CONTINUOUS
 62
    7
 10
1552.675034249999
 20
932.01194576471482
 11
1563.625034249999
 21
932.01194576471482
  0
ARC
  8
_0-1_
  6
CONTINUOUS
 62
    7
 10
1563.6250342499995
 20
931.88694576471527
 40
0.1249999999995452
 50
0.0000000002084281
 51
90.000000000208444
  0
LINE
  8
_0-1_
  6
CONTINUOUS
 62
    7
 10
1563.750034249999
 20
931.88694576471573
 11
1563.750034249999
 21
919.811945764715
  0
LINE
  8
_0-1_
  6
CONTINUOUS
 62
    7
 10
1563.750034249999
 20
919.811945764715
 11
1559.875034249999
 21
926.52364264404502
  0
LINE
  8
_0-1_
  6
CONTINUOUS
 62
    7
 10
1559.875034249999
 20
926.52364264404502
 11
1559.658527899053
 21
926.39864264404479
  0
LINE
  8
_0-1_
  6
CONTINUOUS
 62
    7
 10
1559.658527899053
 20
926.39864264404479
 11
1563.533527899053
 21
919.686945764715
  0
ARC
  8
_0-1_
  6
CONTINUOUS
 62
    7
 10
1563.750034249999
 20
919.811945764715
 40
0.2499999999999555
 50
210.00000000000321
 51
0.0000000000023154
  0
LINE
  8
_0-1_
  6
CONTINUOUS
 62
    7
 10
1564.000034249999
 20
919.811945764715
 11
1564.000034249999
 21
931.88694576471573
  0
ARC
  8
_0-1_
  6
CONTINUOUS
 62
    7
 10
1563.625034249999
 20
931.88694576471573
 40
0.375
 50
0
 51
90.000000000000014
  0
LINE
  8
_0-1_
  6
CONTINUOUS
 62
    7
 10
1563.625034249999
 20
932.26194576471573
 11
1552.675034249999
 21
932.26194576471573
  0
LINE
  8
_0-1_
  6
CONTINUOUS
 62
    7
 10
1552.675034249999
 20
932.26194576471573
 11
1552.300034249999
 21
931.88694576471573
  0
INSERT
  2
-005-_D30
  8
_0-4_
 10
0
 20
1.4619289340101886
 41
1
 42
1
 50
0
  0
ARC
  8
_0-1_
  6
CONTINUOUS
 62
    7
 10
124.30000000000018
 20
1056.5619289340099
 40
0.300000000000155
 50
89.993458731863228
 51
179.99999999998945
  0
LINE
  8
_0-1_
  6
CONTINUOUS
 62
    7
 10
124
 20
1056.5619289340102
 11
124
 21
1042.061928349331
  0
LINE
  8
_0-1_
  6
CONTINUOUS
 62
    7
 10
124
 20
1042.061928349331
 11
123.40000000000009
 21
1042.061928349331
  0
LINE
  8
_0-1_
  6
CONTINUOUS
 62
    7
 10
123.40000000000009
 20
1042.061928349331
 11
123.40000000000009
 21
1056.5619289340102
  0
ARC
  8
_0-1_
  6
CONTINUOUS
 62
    7
 10
124.30000000000006
 20
1056.5619289340102
 40
0.8999999999999701
 50
90.000000000006821
 51
180.0000000000077
  0
LINE
  8
_0-1_
  6
CONTINUOUS
 62
    7
 10
124.29999999999995
 20
1057.4619289340103
 11
135.70000000000004
 21
1057.4619289340103
  0
ARC
  8
_0-1_
  6
CONTINUOUS
 62
    7
 10
135.69999999999993
 20
1056.5619289340102
 40
0.8999999999999699
 50
359.99999999999226
 51
89.999999999993207
  0
LINE
  8
_0-1_
  6
CONTINUOUS
 62
    7
 10
136.5999999999999
 20
1056.5619289340102
 11
136.5999999999999
 21
1042.061928349331
  0
LINE
  8
_0-1_
  6
CONTINUOUS
 62
    7
 10
136.5999999999999
 20
1042.061928349331
 11
136
 21
1042.061928349331
  0
LINE
  8
_0-1_
  6
CONTINUOUS
 62
    7
 10
136
 20
1042.061928349331
 11
136
 21
1056.5619625973763
  0
ARC
  8
_0-1_
  6
CONTINUOUS
 62
    7
 10
135.70000000000061
 20
1056.5619625973758
 40
0.2999999999993449
 50
0.0000000000729746
 51
89.993458731941345
  0
LINE
  8
_0-1_
  6
CONTINUOUS
 62
    7
 10
135.70003425000004
 20
1056.8619625954202
 11
124.30003424999995
 21
1056.8619289340113
  0
LINE
  8
_0-1_
  6
CONTINUOUS
 62
    7
 10
124.15003425000008
 20
1056.4869457647159
 11
124.15003425000008
 21
1044.4119457647152
  0
ARC
  8
_0-1_
  6
CONTINUOUS
 62
    7
 10
124.40003425000008
 20
1044.4119457647152
 40
0.2499999999999553
 50
179.99999999999749
 51
329.99999999999698
  0
LINE
  8
_0-1_
  6
CONTINUOUS
 62
    7
 10
124.6165406009461
 20
1044.2869457647152
 11
128.4915406009461
 21
1050.998642644045
  0
LINE
  8
_0-1_
  6
CONTINUOUS
 62
    7
 10
128.4915406009461
 20
1050.998642644045
 11
128.27503425000008
 21
1051.123642644045
  0
LINE
  8
_0-1_
  6
CONTINUOUS
 62
    7
 10
128.27503425000008
 20
1051.123642644045
 11
124.40003425000008
 21
1044.4119457647152
  0
LINE
  8
_0-1_
  6
CONTINUOUS
 62
    7
 10
124.40003425000008
 20
1044.4119457647152
 11
124.40003425000008
 21
1056.4869457647159
  0
ARC
  8
_0-1_
  6
CONTINUOUS
 62
    7
 10
124.52503424999963
 20
1056.4869457647155
 40
0.1249999999995452
 50
89.99999999979154
 51
179.99999999979155
  0
LINE
  8
_0-1_
  6
CONTINUOUS
 62
    7
 10
124.52503425000008
 20
1056.611945764715
 11
135.4750342499999
 21
1056.611945764715
  0
ARC
  8
_0-1_
  6
CONTINUOUS
 62
    7
 10
135.47503425000036
 20
1056.4869457647155
 40
0.1249999999995452
 50
0.0000000002084281
 51
90.000000000208444
  0
LINE
  8
_0-1_
  6
CONTINUOUS
 62
    7
 10
135.6000342499999
 20
1056.4869457647159
 11
135.6000342499999
 21
1044.4119457647152
  0
LINE
  8
_0-1_
  6
CONTINUOUS
 62
    7
 10
135.6000342499999
 20
1044.4119457647152
 11
131.7250342499999
 21
1051.123642644045
  0
LINE
  8
_0-1_
  6
CONTINUOUS
 62
    7
 10
131.7250342499999
 20
1051.123642644045
 11
131.50852789905388
 21
1050.998642644045
  0
LINE
  8
_0-1_
  6
CONTINUOUS
 62
    7
 10
131.50852789905388
 20
1050.998642644045
 11
135.38352789905388
 21
1044.2869457647152
  0
ARC
  8
_0-1_
  6
CONTINUOUS
 62
    7
 10
135.6000342499999
 20
1044.4119457647152
 40
0.2499999999999555
 50
210.00000000000321
 51
0.0000000000023154
  0
LINE
  8
_0-1_
  6
CONTINUOUS
 62
    7
 10
135.8500342499999
 20
1044.4119457647152
 11
135.8500342499999
 21
1056.4869457647159
  0
ARC
  8
_0-1_
  6
CONTINUOUS
 62
    7
 10
135.4750342499999
 20
1056.4869457647159
 40
0.375
 50
0
 51
90.000000000000014
  0
LINE
  8
_0-1_
  6
CONTINUOUS
 62
    7
 10
135.4750342499999
 20
1056.8619457647159
 11
124.52503425000008
 21
1056.8619457647159
  0
LINE
  8
_0-1_
  6
CONTINUOUS
 62
    7
 10
124.52503425000008
 20
1056.8619457647159
 11
124.15003425000008
 21
1056.4869457647159
  0
ARC
  8
_0-1_
  6
CONTINUOUS
 62
    7
 10
111.10000000000013
 20
1056.5619289340099
 40
0.300000000000155
 50
89.993458731863228
 51
179.99999999998945
  0
LINE
  8
_0-1_
  6
CONTINUOUS
 62
    7
 10
110.79999999999995
 20
1056.5619289340102
 11
110.79999999999995
 21
1042.061928349331
  0
LINE
  8
_0-1_
  6
CONTINUOUS
 62
    7
 10
110.79999999999995
 20
1042.061928349331
 11
110.20000000000004
 21
1042.061928349331
  0
LINE
  8
_0-1_
  6
CONTINUOUS
 62
    7
 10
110.20000000000004
 20
1042.061928349331
 11
110.20000000000004
 21
1056.5619289340102
  0
ARC
  8
_0-1_
  6
CONTINUOUS
 62
    7
 10
111.10000000000002
 20
1056.5619289340102
 40
0.8999999999999701
 50
90.000000000006821
 51
180.0000000000077
  0
LINE
  8
_0-1_
  6
CONTINUOUS
 62
    7
 10
111.0999999999999
 20
1057.4619289340103
 11
122.5
 21
1057.4619289340103
  0
ARC
  8
_0-1_
  6
CONTINUOUS
 62
    7
 10
122.49999999999988
 20
1056.5619289340102
 40
0.8999999999999699
 50
359.99999999999226
 51
89.999999999993207
  0
LINE
  8
_0-1_
  6
CONTINUOUS
 62
    7
 10
123.39999999999986
 20
1056.5619289340102
 11
123.39999999999986
 21
1042.061928349331
  0
LINE
  8
_0-1_
  6
CONTINUOUS
 62
    7
 10
123.39999999999986
 20
1042.061928349331
 11
122.79999999999995
 21
1042.061928349331
  0
LINE
  8
_0-1_
  6
CONTINUOUS
 62
    7
 10
122.79999999999995
 20
1042.061928349331
 11
122.79999999999995
 21
1056.5619625973763
  0
ARC
  8
_0-1_
  6
CONTINUOUS
 62
    7
 10
122.50000000000056
 20
1056.5619625973758
 40
0.2999999999993449
 50
0.0000000000729746
 51
89.993458731941345
  0
LINE
  8
_0-1_
  6
CONTINUOUS
 62
    7
 10
122.50003424999999
 20
1056.8619625954202
 11
111.1000342499999
 21
1056.8619289340113
  0
LINE
  8
_0-1_
  6
CONTINUOUS
 62
    7
 10
110.95003425000004
 20
1056.4869457647159
 11
110.95003425000004
 21
1044.4119457647152
  0
ARC
  8
_0-1_
  6
CONTINUOUS
 62
    7
 10
111.20003425000004
 20
1044.4119457647152
 40
0.2499999999999553
 50
179.99999999999749
 51
329.99999999999698
  0
LINE
  8
_0-1_
  6
CONTINUOUS
 62
    7
 10
111.41654060094606
 20
1044.2869457647152
 11
115.29154060094606
 21
1050.998642644045
  0
LINE
  8
_0-1_
  6
CONTINUOUS
 62
    7
 10
115.29154060094606
 20
1050.998642644045
 11
115.07503425000004
 21
1051.123642644045
  0
LINE
  8
_0-1_
  6
CONTINUOUS
 62
    7
 10
115.07503425000004
 20
1051.123642644045
 11
111.20003425000004
 21
1044.4119457647152
  0
LINE
  8
_0-1_
  6
CONTINUOUS
 62
    7
 10
111.20003425000004
 20
1044.4119457647152
 11
111.20003425000004
 21
1056.4869457647159
  0
ARC
  8
_0-1_
  6
CONTINUOUS
 62
    7
 10
111.32503424999958
 20
1056.4869457647155
 40
0.1249999999995452
 50
89.99999999979154
 51
179.99999999979155
  0
LINE
  8
_0-1_
  6
CONTINUOUS
 62
    7
 10
111.32503425000004
 20
1056.611945764715
 11
122.27503424999986
 21
1056.611945764715
  0
ARC
  8
_0-1_
  6
CONTINUOUS
 62
    7
 10
122.27503425000031
 20
1056.4869457647155
 40
0.1249999999995452
 50
0.0000000002084281
 51
90.000000000208444
  0
LINE
  8
_0-1_
  6
CONTINUOUS
 62
    7
 10
122.40003424999986
 20
1056.4869457647159
 11
122.40003424999986
 21
1044.4119457647152
  0
LINE
  8
_0-1_
  6
CONTINUOUS
 62
    7
 10
122.40003424999986
 20
1044.4119457647152
 11
118.52503424999986
 21
1051.123642644045
  0
LINE
  8
_0-1_
  6
CONTINUOUS
 62
    7
 10
118.52503424999986
 20
1051.123642644045
 11
118.30852789905384
 21
1050.998642644045
  0
LINE
  8
_0-1_
  6
CONTINUOUS
 62
    7
 10
118.30852789905384
 20
1050.998642644045
 11
122.18352789905384
 21
1044.2869457647152
  0
ARC
  8
_0-1_
  6
CONTINUOUS
 62
    7
 10
122.40003424999986
 20
1044.4119457647152
 40
0.2499999999999555
 50
210.00000000000321
 51
0.0000000000023154
  0
LINE
  8
_0-1_
  6
CONTINUOUS
 62
    7
 10
122.65003424999986
 20
1044.4119457647152
 11
122.65003424999986
 21
1056.4869457647159
  0
ARC
  8
_0-1_
  6
CONTINUOUS
 62
    7
 10
122.27503424999986
 20
1056.4869457647159
 40
0.375
 50
0
 51
90.000000000000014
  0
LINE
  8
_0-1_
  6
CONTINUOUS
 62
    7
 10
122.27503424999986
 20
1056.8619457647159
 11
111.32503425000004
 21
1056.8619457647159
  0
LINE
  8
_0-1_
  6
CONTINUOUS
 62
    7
 10
111.32503425000004
 20
1056.8619457647159
 11
110.95003425000004
 21
1056.4869457647159
  0
ARC
  8
_0-1_
  6
CONTINUOUS
 62
    7
 10
137.50000000000022
 20
1056.5619289340099
 40
0.300000000000155
 50
89.993458731863228
 51
179.99999999998945
  0
LINE
  8
_0-1_
  6
CONTINUOUS
 62
    7
 10
137.20000000000004
 20
1056.5619289340102
 11
137.20000000000004
 21
1042.061928349331
  0
LINE
  8
_0-1_
  6
CONTINUOUS
 62
    7
 10
137.20000000000004
 20
1042.061928349331
 11
136.60000000000013
 21
1042.061928349331
  0
LINE
  8
_0-1_
  6
CONTINUOUS
 62
    7
 10
136.60000000000013
 20
1042.061928349331
 11
136.60000000000013
 21
1056.5619289340102
  0
ARC
  8
_0-1_
  6
CONTINUOUS
 62
    7
 10
137.50000000000011
 20
1056.5619289340102
 40
0.8999999999999701
 50
90.000000000006821
 51
180.0000000000077
  0
LINE
  8
_0-1_
  6
CONTINUOUS
 62
    7
 10
137.5
 20
1057.4619289340103
 11
148.90000000000009
 21
1057.4619289340103
  0
ARC
  8
_0-1_
  6
CONTINUOUS
 62
    7
 10
148.89999999999997
 20
1056.5619289340102
 40
0.8999999999999699
 50
359.99999999999226
 51
89.999999999993207
  0
LINE
  8
_0-1_
  6
CONTINUOUS
 62
    7
 10
149.79999999999995
 20
1056.5619289340102
 11
149.79999999999995
 21
1042.061928349331
  0
LINE
  8
_0-1_
  6
CONTINUOUS
 62
    7
 10
149.79999999999995
 20
1042.061928349331
 11
149.20000000000004
 21
1042.061928349331
  0
LINE
  8
_0-1_
  6
CONTINUOUS
 62
    7
 10
149.20000000000004
 20
1042.061928349331
 11
149.20000000000004
 21
1056.5619625973763
  0
ARC
  8
_0-1_
  6
CONTINUOUS
 62
    7
 10
148.90000000000065
 20
1056.5619625973758
 40
0.2999999999993449
 50
0.0000000000729746
 51
89.993458731941345
  0
LINE
  8
_0-1_
  6
CONTINUOUS
 62
    7
 10
148.90003425000008
 20
1056.8619625954202
 11
137.50003424999999
 21
1056.8619289340113
  0
LINE
  8
_0-1_
  6
CONTINUOUS
 62
    7
 10
137.35003425000013
 20
1056.4869457647159
 11
137.35003425000013
 21
1044.4119457647152
  0
ARC
  8
_0-1_
  6
CONTINUOUS
 62
    7
 10
137.60003425000013
 20
1044.4119457647152
 40
0.2499999999999553
 50
179.99999999999749
 51
329.99999999999698
  0
LINE
  8
_0-1_
  6
CONTINUOUS
 62
    7
 10
137.81654060094615
 20
1044.2869457647152
 11
141.69154060094615
 21
1050.998642644045
  0
LINE
  8
_0-1_
  6
CONTINUOUS
 62
    7
 10
141.69154060094615
 20
1050.998642644045
 11
141.47503425000013
 21
1051.123642644045
  0
LINE
  8
_0-1_
  6
CONTINUOUS
 62
    7
 10
141.47503425000013
 20
1051.123642644045
 11
137.60003425000013
 21
1044.4119457647152
  0
LINE
  8
_0-1_
  6
CONTINUOUS
 62
    7
 10
137.60003425000013
 20
1044.4119457647152
 11
137.60003425000013
 21
1056.4869457647159
  0
ARC
  8
_0-1_
  6
CONTINUOUS
 62
    7
 10
137.72503424999968
 20
1056.4869457647155
 40
0.1249999999995452
 50
89.99999999979154
 51
179.99999999979155
  0
LINE
  8
_0-1_
  6
CONTINUOUS
 62
    7
 10
137.72503425000013
 20
1056.611945764715
 11
148.67503424999995
 21
1056.611945764715
  0
ARC
  8
_0-1_
  6
CONTINUOUS
 62
    7
 10
148.6750342500004
 20
1056.4869457647155
 40
0.1249999999995452
 50
0.0000000002084281
 51
90.000000000208444
  0
LINE
  8
_0-1_
  6
CONTINUOUS
 62
    7
 10
148.80003424999995
 20
1056.4869457647159
 11
148.80003424999995
 21
1044.4119457647152
  0
LINE
  8
_0-1_
  6
CONTINUOUS
 62
    7
 10
148.80003424999995
 20
1044.4119457647152
 11
144.92503424999995
 21
1051.123642644045
  0
LINE
  8
_0-1_
  6
CONTINUOUS
 62
    7
 10
144.92503424999995
 20
1051.123642644045
 11
144.70852789905393
 21
1050.998642644045
  0
LINE
  8
_0-1_
  6
CONTINUOUS
 62
    7
 10
144.70852789905393
 20
1050.998642644045
 11
148.58352789905393
 21
1044.2869457647152
  0
ARC
  8
_0-1_
  6
CONTINUOUS
 62
    7
 10
148.80003424999995
 20
1044.4119457647152
 40
0.2499999999999555
 50
210.00000000000321
 51
0.0000000000023154
  0
LINE
  8
_0-1_
  6
CONTINUOUS
 62
    7
 10
149.05003424999995
 20
1044.4119457647152
 11
149.05003424999995
 21
1056.4869457647159
  0
ARC
  8
_0-1_
  6
CONTINUOUS
 62
    7
 10
148.67503424999995
 20
1056.4869457647159
 40
0.375
 50
0
 51
90.000000000000014
  0
LINE
  8
_0-1_
  6
CONTINUOUS
 62
    7
 10
148.67503424999995
 20
1056.8619457647159
 11
137.72503425000013
 21
1056.8619457647159
  0
LINE
  8
_0-1_
  6
CONTINUOUS
 62
    7
 10
137.72503425000013
 20
1056.8619457647159
 11
137.35003425000013
 21
1056.4869457647159
  0
TEXT
  8
_0-0_
 62
    7
 10
30
 20
357.46192893401018
 40
10
 41
1
 50
0
  1
999-76758
  0
LINE
  8
_0-1_
  6
CONTINUOUS
 62
    7
 10
88.40000000000009
 20
454.46192893401018
 11
88.899999999999977
 21
453.96192893401018
  0
LINE
  8
_0-1_
  6
CONTINUOUS
 62
    7
 10
88.899999999999977
 20
453.96192893401018
 11
99.799999999999954
 21
453.96192893401018
  0
LINE
  8
_0-1_
  6
CONTINUOUS
 62
    7
 10
99.799999999999954
 20
453.96192893401018
 11
100
 21
453.96192893401018
  0
LINE
  8
_0-1_
  6
CONTINUOUS
 62
    7
 10
100
 20
453.96192893401018
 11
100
 21
460.9619289340099
  0
LINE
  8
_0-1_
  6
CONTINUOUS
 62
    7
 10
100
 20
460.9619289340099
 11
99.799999999999954
 21
460.9619289340099
  0
LINE
  8
_0-1_
  6
CONTINUOUS
 62
    7
 10
99.799999999999954
 20
460.9619289340099
 11
88.899999999999977
 21
460.9619289340099
  0
LINE
  8
_0-1_
  6
CONTINUOUS
 62
    7
 10
88.899999999999977
 20
460.9619289340099
 11
88.40000000000009
 21
460.46192893401018
  0
LINE
  8
_0-1_
  6
CONTINUOUS
 62
    7
 10
88.40000000000009
 20
460.46192893401018
 11
88.40000000000009
 21
454.46192893401018
  0
ARC
  8
ADD_LINE
  6
DOT
 62
    7
 10
136.69003074707507
 20
450.66192818693491
 40
0.9999992529250383
 50
269.99995719570972
 51
0.0000428042837326
  0
LINE
  8
ADD_LINE
  6
DOT
 62
    7
 10
137.69002999999986
 20
450.66192893401006
 11
137.68971999999985
 21
450.66192893401006
  0
ARC
  8
ADD_LINE
  6
DOT
 62
    7
 10
63.332031011501385
 20
457.46190548968098
 40
74.667968988502238
 50
354.77486087680642
 51
0.0000179897904564
  0
ARC
  8
ADD_LINE
  6
DOT
 62
    7
 10
63.299375901956636
 20
457.46199391224979
 40
74.700624098071671
 50
359.99995016134153
 51
5.2228166337028225
  0
LINE
  8
ADD_LINE
  6
DOT
 62
    7
 10
137.68985999999995
 20
464.2619289340102
 11
137.69002999999986
 21
464.2619289340102
  0
ARC
  8
ADD_LINE
  6
DOT
 62
    7
 10
136.69003074707518
 20
464.26192968108523
 40
0.9999992529249815
 50
359.9999571957195
 51
90.000042804293499
  0
LINE
  8
ADD_LINE
  6
DOT
 62
    7
 10
136.69002999999986
 20
465.26192893400997
 11
126
 21
465.26192893400997
  0
LINE
  8
ADD_LINE
  6
DOT
 62
    7
 10
126
 20
465.26192893400997
 11
125.79999999999995
 21
465.26192893400997
  0
LINE
  8
ADD_LINE
  6
DOT
 62
    7
 10
125.79999999999995
 20
465.26192893400997
 11
125.79999999999995
 21
449.66192893401017
  0
LINE
  8
ADD_LINE
  6
DOT
 62
    7
 10
125.79999999999995
 20
449.66192893401017
 11
126
 21
449.66192893401017
  0
LINE
  8
ADD_LINE
  6
DOT
 62
    7
 10
126
 20
449.66192893401017
 11
136.69002999999986
 21
449.66192893401017
  0
ARC
  8
_0-1_
  6
CONTINUOUS
 62
    7
 10
54.832031011501499
 20
457.46190548967973
 40
74.667968988502195
 50
354.77486087680733
 51
0.0000179897914106
  0
ARC
  8
_0-1_
  6
CONTINUOUS
 62
    7
 10
54.799375901956636
 20
457.46199391224979
 40
74.700624098071671
 50
359.99995016134153
 51
5.2228166337028225
  0
LINE
  8
_0-1_
  6
CONTINUOUS
 62
    7
 10
129.18985999999995
 20
464.2619289340102
 11
129.19002999999997
 21
464.2619289340102
  0
ARC
  8
_0-1_
  6
CONTINUOUS
 62
    7
 10
128.19003074707529
 20
464.26192968108523
 40
0.9999992529249815
 50
359.9999571957195
 51
90.000042804293499
  0
LINE
  8
_0-1_
  6
CONTINUOUS
 62
    7
 10
128.19002999999997
 20
465.26192893400997
 11
126
 21
465.26192893400997
  0
LINE
  8
_0-1_
  6
CONTINUOUS
 62
    7
 10
126
 20
465.26192893400997
 11
125.79999999999995
 21
465.26192893400997
  0
LINE
  8
_0-1_
  6
CONTINUOUS
 62
    7
 10
125.79999999999995
 20
465.26192893400997
 11
125.79999999999995
 21
449.66192893401017
  0
LINE
  8
_0-1_
  6
CONTINUOUS
 62
    7
 10
125.79999999999995
 20
449.66192893401017
 11
126
 21
449.66192893401017
  0
LINE
  8
_0-1_
  6
CONTINUOUS
 62
    7
 10
126
 20
449.66192893401017
 11
128.19002999999997
 21
449.66192893401017
  0
ARC
  8
_0-1_
  6
CONTINUOUS
 62
    7
 10
128.19003074707518
 20
450.66192818693491
 40
0.9999992529250383
 50
269.99995719570972
 51
0.0000428042837326
  0
LINE
  8
_0-1_
  6
CONTINUOUS
 62
    7
 10
129.19002999999997
 20
450.66192893401006
 11
129.18971999999996
 21
450.66192893401006
  0
LINE
  8
_0-1_
  6
CONTINUOUS
 62
    7
 10
110.5
 20
448.36192893401016
 11
101.10195999999996
 21
448.36192893401016
  0
LINE
  8
_0-1_
  6
CONTINUOUS
 62
    7
 10
101.10195999999996
 20
448.36192893401016
 11
100
 21
448.36192893401016
  0
LINE
  8
_0-1_
  6
CONTINUOUS
 62
    7
 10
100
 20
448.36192893401016
 11
100
 21
466.56192893401021
  0
LINE
  8
_0-1_
  6
CONTINUOUS
 62
    7
 10
100
 20
466.56192893401021
 11
101.10195999999996
 21
466.56192893401021
  0
LINE
  8
_0-1_
  6
CONTINUOUS
 62
    7
 10
101.10195999999996
 20
466.56192893401021
 11
110.5
 21
466.56192893401021
  0
LINE
  8
_0-1_
  6
CONTINUOUS
 62
    7
 10
110.5
 20
466.56192893401021
 11
110.70000000000004
 21
466.56192893401021
  0
LINE
  8
_0-1_
  6
CONTINUOUS
 62
    7
 10
110.70000000000004
 20
466.56192893401021
 11
123.5
 21
466.56192893401021
  0
LINE
  8
_0-1_
  6
CONTINUOUS
 62
    7
 10
123.5
 20
466.56192893401021
 11
124.79999999999995
 21
466.56192893401021
  0
ARC
  8
_0-1_
  6
CONTINUOUS
 62
    7
 10
124.80000074707515
 20
465.56192968108541
 40
0.9999992529250951
 50
359.99995719571302
 51
90.000042804287005
  0
LINE
  8
_0-1_
  6
CONTINUOUS
 62
    7
 10
125.79999999999995
 20
465.56192893401021
 11
125.79999999999995
 21
449.36192893401016
  0
ARC
  8
_0-1_
  6
CONTINUOUS
 62
    7
 10
124.80000074707515
 20
449.36192818693496
 40
0.9999992529250951
 50
269.99995719571302
 51
0.0000428042870022
  0
LINE
  8
_0-1_
  6
CONTINUOUS
 62
    7
 10
124.79999999999995
 20
448.36192893401016
 11
123.5
 21
448.36192893401016
  0
LINE
  8
_0-1_
  6
CONTINUOUS
 62
    7
 10
123.5
 20
448.36192893401016
 11
110.70000000000004
 21
448.36192893401016
  0
LINE
  8
_0-1_
  6
CONTINUOUS
 62
    7
 10
110.70000000000004
 20
448.36192893401016
 11
110.5
 21
448.36192893401016
  0
CIRCLE
  8
_0-1_
  6
CONTINUOUS
 62
    7
 10
180
 20
457.46192893401018
 40
9.0999999999999996
  0
CIRCLE
  8
_0-1_
  6
CONTINUOUS
 62
    7
 10
180
 20
457.46192893401018
 40
7.8000100000000003
  0
TEXT
  8
_0-0_
 62
    7
 10
131.58757353979001
 20
390.31536476312476
 40
5
 41
1
 50
0
  1
※プッシュ時：11.6mm
  0
TEXT
  8
_0-0_
 62
    7
 10
131.88394761647964
 20
381.41597077821859
 40
5
 41
1
 50
0
  1
　ストローク：8.4mm
  0
LINE
  8
_0-1_
  6
CONTINUOUS
 62
    7
 10
88.899999999999977
 20
460.9619289340099
 11
88.899999999999977
 21
453.96192893401018
  0
INSERT
  2
-006-_D33
  8
_0-4_
 10
0
 20
1.4619289340101886
 41
1
 42
1
 50
0
  0
INSERT
  2
-007-_D34
  8
_0-4_
 10
0
 20
1.4619289340101886
 41
1
 42
1
 50
0
  0
LINE
  8
_0-1_
  6
CONTINUOUS
 62
    7
 10
1542.0499999999999
 20
314.96191358037401
 11
1547.8499999999999
 21
314.96191358037401
  0
ARC
  8
ADD_LINE
  6
DOT
 62
    7
 10
1500.5599692529256
 20
304.66191283329897
 40
0.9999992529249815
 50
179.99995719571947
 51
270.00004280429345
  0
LINE
  8
ADD_LINE
  6
DOT
 62
    7
 10
1499.5599700000009
 20
304.66191358037406
 11
1499.560280000001
 21
304.66191358037406
  0
ARC
  8
ADD_LINE
  6
DOT
 62
    7
 10
1573.9179689884995
 20
311.46189013604498
 40
74.667968988502238
 50
179.99998201020952
 51
185.22513912319359
  0
ARC
  8
ADD_LINE
  6
DOT
 62
    7
 10
1573.9506240980442
 20
311.46197855861379
 40
74.700624098071671
 50
174.77718336629718
 51
180.00004983865844
  0
LINE
  8
ADD_LINE
  6
DOT
 62
    7
 10
1499.5601400000009
 20
318.26191358037419
 11
1499.5599700000009
 21
318.26191358037419
  0
ARC
  8
ADD_LINE
  6
DOT
 62
    7
 10
1500.5599692529258
 20
318.26191432744934
 40
0.9999992529250383
 50
89.999957195709782
 51
180.00004280428373
  0
LINE
  8
ADD_LINE
  6
DOT
 62
    7
 10
1500.5599700000009
 20
319.26191358037408
 11
1511.2500000000009
 21
319.26191358037408
  0
LINE
  8
ADD_LINE
  6
DOT
 62
    7
 10
1511.2500000000009
 20
319.26191358037408
 11
1511.4500000000009
 21
319.26191358037408
  0
LINE
  8
ADD_LINE
  6
DOT
 62
    7
 10
1511.4500000000009
 20
319.26191358037408
 11
1511.4500000000009
 21
303.66191358037428
  0
LINE
  8
ADD_LINE
  6
DOT
 62
    7
 10
1511.4500000000009
 20
303.66191358037428
 11
1511.2500000000009
 21
303.66191358037428
  0
LINE
  8
ADD_LINE
  6
DOT
 62
    7
 10
1511.2500000000009
 20
303.66191358037428
 11
1500.5599700000009
 21
303.66191358037428
  0
ARC
  8
_0-1_
  6
CONTINUOUS
 62
    7
 10
1582.4179689884995
 20
311.46189013604498
 40
74.667968988502238
 50
179.99998201020952
 51
185.22513912319359
  0
ARC
  8
_0-1_
  6
CONTINUOUS
 62
    7
 10
1582.4506240980442
 20
311.46197855861379
 40
74.700624098071671
 50
174.77718336629718
 51
180.00004983865844
  0
LINE
  8
_0-1_
  6
CONTINUOUS
 62
    7
 10
1508.0601400000009
 20
318.26191358037419
 11
1508.0599700000009
 21
318.26191358037419
  0
ARC
  8
_0-1_
  6
CONTINUOUS
 62
    7
 10
1509.0599692529258
 20
318.26191432744934
 40
0.9999992529250383
 50
89.999957195709782
 51
180.00004280428373
  0
LINE
  8
_0-1_
  6
CONTINUOUS
 62
    7
 10
1509.0599700000009
 20
319.26191358037408
 11
1511.2500000000009
 21
319.26191358037408
  0
LINE
  8
_0-1_
  6
CONTINUOUS
 62
    7
 10
1511.2500000000009
 20
319.26191358037408
 11
1511.4500000000009
 21
319.26191358037408
  0
LINE
  8
_0-1_
  6
CONTINUOUS
 62
    7
 10
1511.4500000000009
 20
319.26191358037408
 11
1511.4500000000009
 21
303.66191358037428
  0
LINE
  8
_0-1_
  6
CONTINUOUS
 62
    7
 10
1511.4500000000009
 20
303.66191358037428
 11
1511.2500000000009
 21
303.66191358037428
  0
LINE
  8
_0-1_
  6
CONTINUOUS
 62
    7
 10
1511.2500000000009
 20
303.66191358037428
 11
1509.0599700000009
 21
303.66191358037428
  0
ARC
  8
_0-1_
  6
CONTINUOUS
 62
    7
 10
1509.0599692529256
 20
304.66191283329897
 40
0.9999992529249815
 50
179.99995719571947
 51
270.00004280429345
  0
LINE
  8
_0-1_
  6
CONTINUOUS
 62
    7
 10
1508.0599700000009
 20
304.66191358037406
 11
1508.060280000001
 21
304.66191358037406
  0
LINE
  8
_0-1_
  6
CONTINUOUS
 62
    7
 10
1529.0499999999999
 20
320.56191358037426
 11
1526.7500000000009
 21
320.56191358037426
  0
LINE
  8
_0-1_
  6
CONTINUOUS
 62
    7
 10
1526.7500000000009
 20
320.56191358037426
 11
1526.550000000001
 21
320.56191358037426
  0
LINE
  8
_0-1_
  6
CONTINUOUS
 62
    7
 10
1526.550000000001
 20
320.56191358037426
 11
1513.7500000000009
 21
320.56191358037426
  0
LINE
  8
_0-1_
  6
CONTINUOUS
 62
    7
 10
1513.7500000000009
 20
320.56191358037426
 11
1512.4500000000009
 21
320.56191358037426
  0
ARC
  8
_0-1_
  6
CONTINUOUS
 62
    7
 10
1512.4499992529258
 20
319.56191432744947
 40
0.9999992529250951
 50
89.999957195713022
 51
180.00004280428703
  0
LINE
  8
_0-1_
  6
CONTINUOUS
 62
    7
 10
1511.4500000000009
 20
319.56191358037426
 11
1511.4500000000009
 21
303.36191358037416
  0
ARC
  8
_0-1_
  6
CONTINUOUS
 62
    7
 10
1512.4499992529258
 20
303.36191283329895
 40
0.9999992529250951
 50
179.99995719571299
 51
270.00004280428697
  0
LINE
  8
_0-1_
  6
CONTINUOUS
 62
    7
 10
1512.4500000000009
 20
302.36191358037416
 11
1513.7500000000009
 21
302.36191358037416
  0
LINE
  8
_0-1_
  6
CONTINUOUS
 62
    7
 10
1513.7500000000009
 20
302.36191358037416
 11
1526.550000000001
 21
302.36191358037416
  0
LINE
  8
_0-1_
  6
CONTINUOUS
 62
    7
 10
1526.550000000001
 20
302.36191358037416
 11
1526.7500000000009
 21
302.36191358037416
  0
LINE
  8
_0-1_
  6
CONTINUOUS
 62
    7
 10
1526.7500000000009
 20
302.36191358037416
 11
1529.0499999999999
 21
302.36191358037416
  0
LINE
  8
_0-1_
  6
CONTINUOUS
 62
    7
 10
1549.3499999999999
 20
314.96191358037401
 11
1559.3499999999999
 21
314.96191358037401
  0
LINE
  8
_0-1_
  6
CONTINUOUS
 62
    7
 10
1530.5499999999999
 20
302.36191358037416
 11
1536.1480400000009
 21
302.36191358037416
  0
LINE
  8
_0-1_
  6
CONTINUOUS
 62
    7
 10
1536.1480400000009
 20
302.36191358037416
 11
1536.3499999999999
 21
302.36191358037416
  0
LINE
  8
_0-1_
  6
CONTINUOUS
 62
    7
 10
1547.8499999999999
 20
320.56191358037426
 11
1542.0499999999999
 21
320.56191358037426
  0
LINE
  8
_0-1_
  6
CONTINUOUS
 62
    7
 10
1537.8499999999999
 20
314.96191358037401
 11
1540.5499999999999
 21
314.96191358037401
  0
LINE
  8
_0-1_
  6
CONTINUOUS
 62
    7
 10
1547.8499999999999
 20
307.9619135803743
 11
1537.8499999999999
 21
307.9619135803743
  0
LINE
  8
_0-1_
  6
CONTINUOUS
 62
    7
 10
1559.3499999999999
 20
307.9619135803743
 11
1549.3499999999999
 21
307.9619135803743
  0
LINE
  8
_0-1_
  6
CONTINUOUS
 62
    7
 10
1542.0499999999999
 20
302.36191358037416
 11
1547.8499999999999
 21
302.36191358037416
  0
LINE
  8
_0-1_
  6
CONTINUOUS
 62
    7
 10
1537.8499999999999
 20
302.36191358037416
 11
1540.5499999999999
 21
302.36191358037416
  0
LINE
  8
_0-1_
  6
CONTINUOUS
 62
    7
 10
1536.3499999999999
 20
320.56191358037426
 11
1536.1480400000009
 21
320.56191358037426
  0
LINE
  8
_0-1_
  6
CONTINUOUS
 62
    7
 10
1536.1480400000009
 20
320.56191358037426
 11
1530.5499999999999
 21
320.56191358037426
  0
LINE
  8
_0-1_
  6
CONTINUOUS
 62
    7
 10
1540.5499999999999
 20
320.56191358037426
 11
1537.8499999999999
 21
320.56191358037426
  0
CIRCLE
  8
_0-1_
  6
CONTINUOUS
 62
    7
 10
666.63358443005643
 20
311.46194306818506
 40
9.0999999999999996
  0
CIRCLE
  8
_0-1_
  6
CONTINUOUS
 62
    7
 10
666.63358443005643
 20
311.46194306818506
 40
7.8000100000000003
  0
CIRCLE
  8
_0-1_
  6
CONTINUOUS
 62
    7
 10
1033.3333246590109
 20
311.46194306818506
 40
9.0999999999999996
  0
CIRCLE
  8
_0-1_
  6
CONTINUOUS
 62
    7
 10
1033.3333246590109
 20
311.46194306818506
 40
7.8000100000000003
  0
LINE
  8
_0-1_
  6
CONTINUOUS
 62
    7
 10
1029.83333333336
 20
81.311928934009984
 11
1029.83333333336
 21
91.811928934010097
  0
LINE
  8
_0-1_
  6
CONTINUOUS
 62
    7
 10
1029.83333333336
 20
91.811928934010097
 11
1030.3333333333589
 21
92.311928934010097
  0
LINE
  8
_0-1_
  6
CONTINUOUS
 62
    7
 10
1030.3333333333589
 20
92.311928934010097
 11
1036.3333333333589
 21
92.311928934010097
  0
LINE
  8
_0-1_
  6
CONTINUOUS
 62
    7
 10
1036.3333333333589
 20
92.311928934010097
 11
1036.8333333333589
 21
91.811928934010097
  0
LINE
  8
_0-1_
  6
CONTINUOUS
 62
    7
 10
1036.8333333333589
 20
91.811928934010097
 11
1036.8333333333589
 21
81.311928934009984
  0
ARC
  8
ADD_LINE
  6
DOT
 62
    7
 10
1040.1333340804351
 20
44.021898186935004
 40
0.9999992529250951
 50
269.99995719571302
 51
0.0000428042870022
  0
LINE
  8
ADD_LINE
  6
DOT
 62
    7
 10
1040.13333333336
 20
43.021898934010209
 11
1040.13333333336
 21
43.022208934010222
  0
ARC
  8
ADD_LINE
  6
DOT
 62
    7
 10
1033.3333567776885
 20
117.37989792251926
 40
74.667968988512839
 50
269.99998201020918
 51
275.22513912319323
  0
ARC
  8
ADD_LINE
  6
DOT
 62
    7
 10
1033.3332683551207
 20
117.41255303205286
 40
74.700624098071102
 50
264.77718336629618
 51
270.00004983865744
  0
LINE
  8
ADD_LINE
  6
DOT
 62
    7
 10
1026.5333333333589
 20
43.022068934010235
 11
1026.5333333333589
 21
43.021898934010209
  0
ARC
  8
ADD_LINE
  6
DOT
 62
    7
 10
1026.5333325862843
 20
44.021898186934549
 40
0.9999992529246404
 50
179.99995719568693
 51
270.00004280426094
  0
LINE
  8
ADD_LINE
  6
DOT
 62
    7
 10
1025.5333333333599
 20
44.021898934010209
 11
1025.5333333333599
 21
54.711928934010074
  0
LINE
  8
ADD_LINE
  6
DOT
 62
    7
 10
1025.5333333333599
 20
54.711928934010074
 11
1025.5333333333599
 21
54.91192893401012
  0
LINE
  8
ADD_LINE
  6
DOT
 62
    7
 10
1025.5333333333599
 20
54.91192893401012
 11
1041.13333333336
 21
54.91192893401012
  0
LINE
  8
ADD_LINE
  6
DOT
 62
    7
 10
1041.13333333336
 20
54.91192893401012
 11
1041.13333333336
 21
54.711928934010074
  0
LINE
  8
ADD_LINE
  6
DOT
 62
    7
 10
1041.13333333336
 20
54.711928934010074
 11
1041.13333333336
 21
44.021898934010209
  0
ARC
  8
_0-1_
  6
CONTINUOUS
 62
    7
 10
1033.3333567776885
 20
125.87989792251926
 40
74.667968988512839
 50
269.99998201020918
 51
275.22513912319323
  0
ARC
  8
_0-1_
  6
CONTINUOUS
 62
    7
 10
1033.3332683551182
 20
125.91255303205281
 40
74.700624098070989
 50
264.77718336629811
 51
270.00004983865937
  0
LINE
  8
_0-1_
  6
CONTINUOUS
 62
    7
 10
1026.5333333333589
 20
51.522068934010007
 11
1026.5333333333589
 21
51.521898934010096
  0
ARC
  8
_0-1_
  6
CONTINUOUS
 62
    7
 10
1026.5333325862843
 20
52.521898186934436
 40
0.9999992529246404
 50
179.99995719568693
 51
270.00004280426094
  0
LINE
  8
_0-1_
  6
CONTINUOUS
 62
    7
 10
1025.5333333333599
 20
52.521898934010096
 11
1025.5333333333599
 21
54.711928934010074
  0
LINE
  8
_0-1_
  6
CONTINUOUS
 62
    7
 10
1025.5333333333599
 20
54.711928934010074
 11
1025.5333333333599
 21
54.91192893401012
  0
LINE
  8
_0-1_
  6
CONTINUOUS
 62
    7
 10
1025.5333333333599
 20
54.91192893401012
 11
1041.13333333336
 21
54.91192893401012
  0
LINE
  8
_0-1_
  6
CONTINUOUS
 62
    7
 10
1041.13333333336
 20
54.91192893401012
 11
1041.13333333336
 21
54.711928934010074
  0
LINE
  8
_0-1_
  6
CONTINUOUS
 62
    7
 10
1041.13333333336
 20
54.711928934010074
 11
1041.13333333336
 21
52.521898934010096
  0
ARC
  8
_0-1_
  6
CONTINUOUS
 62
    7
 10
1040.1333340804351
 20
52.52189818693489
 40
0.9999992529250951
 50
269.99995719571302
 51
0.0000428042870022
  0
LINE
  8
_0-1_
  6
CONTINUOUS
 62
    7
 10
1040.13333333336
 20
51.521898934010096
 11
1040.13333333336
 21
51.522208934010222
  0
LINE
  8
_0-1_
  6
CONTINUOUS
 62
    7
 10
1024.233333333359
 20
72.511928934010029
 11
1024.233333333359
 21
70.211928934010074
  0
LINE
  8
_0-1_
  6
CONTINUOUS
 62
    7
 10
1024.233333333359
 20
70.211928934010074
 11
1024.233333333359
 21
70.011928934010029
  0
LINE
  8
_0-1_
  6
CONTINUOUS
 62
    7
 10
1024.233333333359
 20
70.011928934010029
 11
1024.233333333359
 21
57.211928934010074
  0
LINE
  8
_0-1_
  6
CONTINUOUS
 62
    7
 10
1024.233333333359
 20
57.211928934010074
 11
1024.233333333359
 21
55.911928934010234
  0
ARC
  8
_0-1_
  6
CONTINUOUS
 62
    7
 10
1025.2333325862844
 20
55.911928186935483
 40
0.9999992529256068
 50
179.99995719573578
 51
270.00004280430977
  0
LINE
  8
_0-1_
  6
CONTINUOUS
 62
    7
 10
1025.2333333333599
 20
54.91192893401012
 11
1041.4333333333599
 21
54.91192893401012
  0
ARC
  8
_0-1_
  6
CONTINUOUS
 62
    7
 10
1041.4333340804346
 20
55.911928186934574
 40
0.9999992529246972
 50
269.99995719574229
 51
0.0000428043163015
  0
LINE
  8
_0-1_
  6
CONTINUOUS
 62
    7
 10
1042.433333333359
 20
55.911928934010234
 11
1042.433333333359
 21
57.211928934010074
  0
LINE
  8
_0-1_
  6
CONTINUOUS
 62
    7
 10
1042.433333333359
 20
57.211928934010074
 11
1042.433333333359
 21
70.011928934010029
  0
LINE
  8
_0-1_
  6
CONTINUOUS
 62
    7
 10
1042.433333333359
 20
70.011928934010029
 11
1042.433333333359
 21
70.211928934010074
  0
LINE
  8
_0-1_
  6
CONTINUOUS
 62
    7
 10
1042.433333333359
 20
70.211928934010074
 11
1042.433333333359
 21
72.511928934010029
  0
LINE
  8
_0-1_
  6
CONTINUOUS
 62
    7
 10
1042.433333333359
 20
74.011928934010143
 11
1042.433333333359
 21
79.609968934010112
  0
LINE
  8
_0-1_
  6
CONTINUOUS
 62
    7
 10
1042.433333333359
 20
79.609968934010112
 11
1042.433333333359
 21
79.811928934010325
  0
LINE
  8
_0-1_
  6
CONTINUOUS
 62
    7
 10
1024.233333333359
 20
79.811928934010325
 11
1024.233333333359
 21
79.609968934010112
  0
LINE
  8
_0-1_
  6
CONTINUOUS
 62
    7
 10
1024.233333333359
 20
79.609968934010112
 11
1024.233333333359
 21
74.011928934010143
  0
LINE
  8
_0-1_
  6
CONTINUOUS
 62
    7
 10
1029.83333333336
 20
91.811928934010097
 11
1036.8333333333589
 21
91.811928934010097
  0
LINE
  8
_0-1_
  6
CONTINUOUS
 62
    7
 10
663.16666666669357
 20
92.811928934009984
 11
663.16666666669357
 21
103.31192893400998
  0
LINE
  8
_0-1_
  6
CONTINUOUS
 62
    7
 10
663.16666666669357
 20
103.31192893400998
 11
663.66666666669254
 21
103.81192893400998
  0
LINE
  8
_0-1_
  6
CONTINUOUS
 62
    7
 10
663.66666666669254
 20
103.81192893400998
 11
669.66666666669254
 21
103.81192893400998
  0
LINE
  8
_0-1_
  6
CONTINUOUS
 62
    7
 10
669.66666666669254
 20
103.81192893400998
 11
670.16666666669254
 21
103.31192893400998
  0
LINE
  8
_0-1_
  6
CONTINUOUS
 62
    7
 10
670.16666666669254
 20
103.31192893400998
 11
670.16666666669254
 21
92.811928934009984
  0
ARC
  8
ADD_LINE
  6
DOT
 62
    7
 10
673.46666741376895
 20
55.521898186935004
 40
0.9999992529250951
 50
269.99995719571302
 51
0.0000428042870022
  0
LINE
  8
ADD_LINE
  6
DOT
 62
    7
 10
673.46666666669375
 20
54.521898934010209
 11
673.46666666669375
 21
54.522208934010109
  0
ARC
  8
ADD_LINE
  6
DOT
 62
    7
 10
666.66669011102237
 20
128.87989792251789
 40
74.667968988511589
 50
269.99998201020923
 51
275.22513912319323
  0
ARC
  8
ADD_LINE
  6
DOT
 62
    7
 10
666.66660168845544
 20
128.91255303205781
 40
74.700624098076133
 50
264.77718336629544
 51
270.0000498386567
  0
LINE
  8
ADD_LINE
  6
DOT
 62
    7
 10
659.86666666669236
 20
54.522068934010235
 11
659.86666666669236
 21
54.521898934010209
  0
ARC
  8
ADD_LINE
  6
DOT
 62
    7
 10
659.86666591961784
 20
55.521898186934322
 40
0.999999252924413
 50
179.99995719567388
 51
270.00004280424786
  0
LINE
  8
ADD_LINE
  6
DOT
 62
    7
 10
658.86666666669373
 20
55.521898934010209
 11
658.86666666669373
 21
66.211928934009961
  0
LINE
  8
ADD_LINE
  6
DOT
 62
    7
 10
658.86666666669373
 20
66.211928934009961
 11
658.86666666669373
 21
66.41192893401012
  0
LINE
  8
ADD_LINE
  6
DOT
 62
    7
 10
658.86666666669373
 20
66.41192893401012
 11
674.46666666669375
 21
66.41192893401012
  0
LINE
  8
ADD_LINE
  6
DOT
 62
    7
 10
674.46666666669375
 20
66.41192893401012
 11
674.46666666669375
 21
66.211928934009961
  0
LINE
  8
ADD_LINE
  6
DOT
 62
    7
 10
674.46666666669375
 20
66.211928934009961
 11
674.46666666669375
 21
55.521898934010209
  0
ARC
  8
_0-1_
  6
CONTINUOUS
 62
    7
 10
666.66669011102237
 20
137.37989792251789
 40
74.667968988511589
 50
269.99998201020923
 51
275.22513912319323
  0
ARC
  8
_0-1_
  6
CONTINUOUS
 62
    7
 10
666.66660168845294
 20
137.41255303205775
 40
74.700624098076033
 50
264.77718336629732
 51
270.00004983865858
  0
LINE
  8
_0-1_
  6
CONTINUOUS
 62
    7
 10
659.86666666669236
 20
63.022068934010007
 11
659.86666666669236
 21
63.021898934009982
  0
ARC
  8
_0-1_
  6
CONTINUOUS
 62
    7
 10
659.86666591961784
 20
64.021898186934095
 40
0.999999252924413
 50
179.99995719567388
 51
270.00004280424786
  0
LINE
  8
_0-1_
  6
CONTINUOUS
 62
    7
 10
658.86666666669373
 20
64.021898934009982
 11
658.86666666669373
 21
66.211928934009961
  0
LINE
  8
_0-1_
  6
CONTINUOUS
 62
    7
 10
658.86666666669373
 20
66.211928934009961
 11
658.86666666669373
 21
66.41192893401012
  0
LINE
  8
_0-1_
  6
CONTINUOUS
 62
    7
 10
658.86666666669373
 20
66.41192893401012
 11
674.46666666669375
 21
66.41192893401012
  0
LINE
  8
_0-1_
  6
CONTINUOUS
 62
    7
 10
674.46666666669375
 20
66.41192893401012
 11
674.46666666669375
 21
66.211928934009961
  0
LINE
  8
_0-1_
  6
CONTINUOUS
 62
    7
 10
674.46666666669375
 20
66.211928934009961
 11
674.46666666669375
 21
64.021898934009982
  0
ARC
  8
_0-1_
  6
CONTINUOUS
 62
    7
 10
673.46666741376895
 20
64.021898186934777
 40
0.9999992529250951
 50
269.99995719571302
 51
0.0000428042870022
  0
LINE
  8
_0-1_
  6
CONTINUOUS
 62
    7
 10
673.46666666669375
 20
63.021898934009982
 11
673.46666666669375
 21
63.022208934010109
  0
LINE
  8
_0-1_
  6
CONTINUOUS
 62
    7
 10
657.56666666669264
 20
84.011928934009972
 11
657.56666666669264
 21
81.711928934009961
  0
LINE
  8
_0-1_
  6
CONTINUOUS
 62
    7
 10
657.56666666669264
 20
81.711928934009961
 11
657.56666666669264
 21
81.511928934010029
  0
LINE
  8
_0-1_
  6
CONTINUOUS
 62
    7
 10
657.56666666669264
 20
81.511928934010029
 11
657.56666666669264
 21
68.711928934009961
  0
LINE
  8
_0-1_
  6
CONTINUOUS
 62
    7
 10
657.56666666669264
 20
68.711928934009961
 11
657.56666666669264
 21
67.411928934010234
  0
ARC
  8
_0-1_
  6
CONTINUOUS
 62
    7
 10
658.566665919618
 20
67.411928186935483
 40
0.9999992529256068
 50
179.99995719573578
 51
270.00004280430977
  0
LINE
  8
_0-1_
  6
CONTINUOUS
 62
    7
 10
658.56666666669354
 20
66.41192893401012
 11
674.76666666669257
 21
66.41192893401012
  0
ARC
  8
_0-1_
  6
CONTINUOUS
 62
    7
 10
674.76666741376777
 20
67.411928186935028
 40
0.9999992529252088
 50
269.99995719571302
 51
0.0000428042869895
  0
LINE
  8
_0-1_
  6
CONTINUOUS
 62
    7
 10
675.76666666669268
 20
67.411928934010234
 11
675.76666666669268
 21
68.711928934009961
  0
LINE
  8
_0-1_
  6
CONTINUOUS
 62
    7
 10
675.76666666669268
 20
68.711928934009961
 11
675.76666666669268
 21
81.511928934010029
  0
LINE
  8
_0-1_
  6
CONTINUOUS
 62
    7
 10
675.76666666669268
 20
81.511928934010029
 11
675.76666666669268
 21
81.711928934009961
  0
LINE
  8
_0-1_
  6
CONTINUOUS
 62
    7
 10
675.76666666669268
 20
81.711928934009961
 11
675.76666666669268
 21
84.011928934009972
  0
LINE
  8
_0-1_
  6
CONTINUOUS
 62
    7
 10
675.76666666669268
 20
85.511928934010029
 11
675.76666666669268
 21
91.109968934009998
  0
LINE
  8
_0-1_
  6
CONTINUOUS
 62
    7
 10
675.76666666669268
 20
91.109968934009998
 11
675.76666666669268
 21
91.311928934010211
  0
LINE
  8
_0-1_
  6
CONTINUOUS
 62
    7
 10
657.56666666669264
 20
91.311928934010211
 11
657.56666666669264
 21
91.109968934009998
  0
LINE
  8
_0-1_
  6
CONTINUOUS
 62
    7
 10
657.56666666669264
 20
91.109968934009998
 11
657.56666666669264
 21
85.511928934010029
  0
LINE
  8
_0-1_
  6
CONTINUOUS
 62
    7
 10
663.16666666669357
 20
103.31192893400998
 11
670.16666666669254
 21
103.31192893400998
  0
TEXT
  8
_0-0_
 62
    7
 10
30
 20
1157.4619289340103
 40
16
 41
1
 50
0
  1
00472W-03756W-5P②
  0
TEXT
  8
_0-0_
 62
    7
 10
30
 20
957.46192893401018
 40
10
 41
1
 50
0
  1
999-03756
  0
LINE
  8
_0-3_
  6
CONTINUOUS
 62
    2
 10
1490
 20
283.46192893400939
 11
1527
 21
283.46192893400939
  0
LINE
  8
_0-3_
  6
CONTINUOUS
 62
    2
 10
1563
 20
283.46192893400939
 11
1600
 21
283.46192893400939
  0
LINE
  8
_0-3_
  6
CONTINUOUS
 62
    2
 10
1586.5086203537
 20
253.46192893400689
 11
1600.000000000002
 21
266.95330858030939
  0
LINE
  8
_0-3_
  6
CONTINUOUS
 62
    2
 10
1563.881203355736
 20
253.46192893400984
 11
1593.881203355736
 21
283.46192893401007
  0
LINE
  8
_0-3_
  6
CONTINUOUS
 62
    2
 10
1541.253786357762
 20
253.46192893400899
 11
1571.253786357762
 21
283.46192893400888
  0
LINE
  8
_0-3_
  6
CONTINUOUS
 62
    2
 10
1518.6263693597959
 20
253.46192893400939
 11
1543.826369359798
 21
278.66192893401148
  0
LINE
  8
_0-3_
  6
CONTINUOUS
 62
    2
 10
1495.9989523618201
 20
253.46192893400689
 11
1525.9989523618219
 21
283.46192893400871
  0
LINE
  8
_0-3_
  6
CONTINUOUS
 62
    2
 10
1489.9999999999979
 20
270.09039357015058
 11
1503.3715353638569
 21
283.4619289340099
  0
LINE
  8
_0-3_
  6
CONTINUOUS
 62
    2
 10
1586.5086203537
 20
253.46192893400689
 11
1600.000000000002
 21
266.95330858030939
  0
LINE
  8
_0-3_
  6
CONTINUOUS
 62
    2
 10
1563.881203355736
 20
253.46192893400984
 11
1593.881203355736
 21
283.46192893401007
  0
LINE
  8
_0-3_
  6
CONTINUOUS
 62
    2
 10
1541.253786357762
 20
253.46192893400899
 11
1571.253786357762
 21
283.46192893400888
  0
LINE
  8
_0-3_
  6
CONTINUOUS
 62
    2
 10
1518.6263693597959
 20
253.46192893400939
 11
1543.826369359798
 21
278.66192893401148
  0
LINE
  8
_0-3_
  6
CONTINUOUS
 62
    2
 10
1495.9989523618201
 20
253.46192893400689
 11
1525.9989523618219
 21
283.46192893400871
  0
LINE
  8
_0-3_
  6
CONTINUOUS
 62
    2
 10
1489.9999999999979
 20
270.09039357015058
 11
1503.3715353638569
 21
283.4619289340099
  0
LINE
  8
_0-3_
  6
CONTINUOUS
 62
    2
 10
1490
 20
917.46192893400973
 11
1524.4499999999989
 21
917.46192893400973
  0
LINE
  8
_0-3_
  6
CONTINUOUS
 62
    2
 10
1565.4499999999989
 20
917.46192893400973
 11
1600
 21
917.46192893400973
  0
LINE
  8
_0-3_
  6
CONTINUOUS
 62
    2
 10
1598.2748554450749
 20
917.46192893400893
 11
1600
 21
919.18707348893451
  0
LINE
  8
_0-3_
  6
CONTINUOUS
 62
    2
 10
1575.6474384471021
 20
917.46192893400893
 11
1600
 21
941.81449048690808
  0
LINE
  8
_0-3_
  6
CONTINUOUS
 62
    2
 10
1565.4499999999989
 20
929.89190748487078
 11
1583.020021449138
 21
947.46192893401143
  0
LINE
  8
_0-3_
  6
CONTINUOUS
 62
    2
 10
1545.792604451163
 20
932.86192893400993
 11
1560.392604451164
 21
947.46192893401087
  0
LINE
  8
_0-3_
  6
CONTINUOUS
 62
    2
 10
1507.7651874531959
 20
917.46192893400836
 11
1537.7651874531959
 21
947.46192893400927
  0
LINE
  8
_0-3_
  6
CONTINUOUS
 62
    2
 10
1490.0000000000009
 20
922.32415847878689
 11
1515.137770455221
 21
947.461928934007
  0
LINE
  8
_0-3_
  6
CONTINUOUS
 62
    2
 10
1489.9999999999979
 20
944.95157547675012
 11
1492.510353457259
 21
947.46192893401143
  0
LINE
  8
_0-3_
  6
CONTINUOUS
 62
    2
 10
852.5
 20
917.46192893400973
 11
1214.1666666666669
 21
917.46192893400973
  0
LINE
  8
_0-3_
  6
CONTINUOUS
 62
    2
 10
1219.1666666666669
 20
917.46192893400973
 11
1400
 21
917.46192893400973
  0
LINE
  8
_0-3_
  6
CONTINUOUS
 62
    2
 10
300
 20
917.46192893400973
 11
480.83333333333308
 21
917.46192893400973
  0
LINE
  8
_0-3_
  6
CONTINUOUS
 62
    2
 10
485.8333333333332
 20
917.46192893400973
 11
847.49999999999988
 21
917.46192893400973
  0
LINE
  8
_0-3_
  6
CONTINUOUS
 62
    2
 10
1400
 20
917.46192893400973
 11
1400
 21
602.96192893400984
  0
LINE
  8
_0-3_
  6
CONTINUOUS
 62
    2
 10
300
 20
602.96192893400984
 11
300
 21
917.46192893400973
  0
LINE
  8
_0-3_
  6
CONTINUOUS
 62
    2
 10
1399.999999999999
 20
612.40392098274367
 11
1425
 21
637.40392098274492
  0
LINE
  8
_0-3_
  6
CONTINUOUS
 62
    2
 10
1400.0000000000009
 20
635.03133798071144
 11
1424.999999999999
 21
660.03133798070939
  0
LINE
  8
_0-3_
  6
CONTINUOUS
 62
    2
 10
1399.999999999999
 20
657.65875497868285
 11
1425
 21
682.65875497868444
  0
LINE
  8
_0-3_
  6
CONTINUOUS
 62
    2
 10
1400.0000000000009
 20
680.28617197665073
 11
1424.999999999999
 21
705.28617197664868
  0
LINE
  8
_0-3_
  6
CONTINUOUS
 62
    2
 10
1399.999999999999
 20
702.91358897462214
 11
1425
 21
727.91358897462373
  0
LINE
  8
_0-3_
  6
CONTINUOUS
 62
    2
 10
1400.0000000000009
 20
725.5410059725898
 11
1424.9999999999979
 21
750.54100597258786
  0
LINE
  8
_0-3_
  6
CONTINUOUS
 62
    2
 10
1399.999999999999
 20
748.16842297055518
 11
1425
 21
773.16842297055518
  0
LINE
  8
_0-3_
  6
CONTINUOUS
 62
    2
 10
1400
 20
770.79583996852898
 11
1424.9999999999979
 21
795.79583996852727
  0
LINE
  8
_0-3_
  6
CONTINUOUS
 62
    2
 10
1399.999999999999
 20
793.42325696649459
 11
1424.999999999999
 21
818.42325696649459
  0
LINE
  8
_0-3_
  6
CONTINUOUS
 62
    2
 10
1400
 20
816.05067396446827
 11
1424.9999999999979
 21
841.05067396446611
  0
LINE
  8
_0-3_
  6
CONTINUOUS
 62
    2
 10
1399.999999999999
 20
838.67809096243399
 11
1424.999999999999
 21
863.67809096243399
  0
LINE
  8
_0-3_
  6
CONTINUOUS
 62
    2
 10
1400
 20
861.30550796040768
 11
1425
 21
886.30550796040768
  0
LINE
  8
_0-3_
  6
CONTINUOUS
 62
    2
 10
1399.999999999999
 20
883.93292495837317
 11
1424.999999999999
 21
908.93292495837317
  0
LINE
  8
_0-3_
  6
CONTINUOUS
 62
    2
 10
1400
 20
906.56034195634674
 11
1425
 21
931.56034195634674
  0
LINE
  8
_0-3_
  6
CONTINUOUS
 62
    2
 10
1388.274169979697
 20
917.46192893401052
 11
1413.274169979697
 21
942.46192893401018
  0
LINE
  8
_0-3_
  6
CONTINUOUS
 62
    2
 10
1365.6467529817239
 20
917.46192893401018
 11
1390.6467529817221
 21
942.46192893400836
  0
LINE
  8
_0-3_
  6
CONTINUOUS
 62
    2
 10
1343.019335983758
 20
917.46192893401052
 11
1368.019335983758
 21
942.46192893401052
  0
LINE
  8
_0-3_
  6
CONTINUOUS
 62
    2
 10
1320.3919189857849
 20
917.46192893401052
 11
1345.3919189857829
 21
942.46192893400836
  0
LINE
  8
_0-3_
  6
CONTINUOUS
 62
    2
 10
1297.764501987817
 20
917.46192893400893
 11
1322.7645019878179
 21
942.46192893401052
  0
LINE
  8
_0-3_
  6
CONTINUOUS
 62
    2
 10
1275.1370849898451
 20
917.46192893401052
 11
1300.137084989843
 21
942.46192893400836
  0
LINE
  8
_0-3_
  6
CONTINUOUS
 62
    2
 10
1252.5096679918769
 20
917.46192893400893
 11
1277.509667991879
 21
942.46192893401109
  0
LINE
  8
_0-3_
  6
CONTINUOUS
 62
    2
 10
1229.8822509939059
 20
917.46192893401109
 11
1254.8822509939041
 21
942.46192893400836
  0
LINE
  8
_0-3_
  6
CONTINUOUS
 62
    2
 10
1184.6274169979669
 20
917.46192893401121
 11
1209.6274169979649
 21
942.46192893400836
  0
LINE
  8
_0-3_
  6
CONTINUOUS
 62
    2
 10
1161.999999999999
 20
917.4619289340095
 11
1187.0000000000009
 21
942.46192893401143
  0
LINE
  8
_0-3_
  6
CONTINUOUS
 62
    2
 10
1139.372583002033
 20
917.46192893400973
 11
1164.372583002033
 21
942.46192893400962
  0
LINE
  8
_0-3_
  6
CONTINUOUS
 62
    2
 10
1116.7451660040599
 20
917.46192893400973
 11
1141.7451660040619
 21
942.46192893401143
  0
LINE
  8
_0-3_
  6
CONTINUOUS
 62
    2
 10
1094.117749006094
 20
917.4619289340095
 11
1119.117749006094
 21
942.46192893400973
  0
LINE
  8
_0-3_
  6
CONTINUOUS
 62
    2
 10
1071.4903320081209
 20
917.46192893400973
 11
1096.490332008123
 21
942.46192893401189
  0
LINE
  8
_0-3_
  6
CONTINUOUS
 62
    2
 10
1048.8629150101539
 20
917.46192893400962
 11
1073.8629150101539
 21
942.46192893400973
  0
LINE
  8
_0-3_
  6
CONTINUOUS
 62
    2
 10
1026.235498012182
 20
917.46192893401018
 11
1051.235498012182
 21
942.46192893401018
  0
LINE
  8
_0-3_
  6
CONTINUOUS
 62
    2
 10
1003.608081014215
 20
917.46192893400973
 11
1028.608081014215
 21
942.46192893401018
  0
LINE
  8
_0-3_
  6
CONTINUOUS
 62
    2
 10
980.98066401624237
 20
917.46192893401018
 11
1005.980664016242
 21
942.46192893401052
  0
LINE
  8
_0-3_
  6
CONTINUOUS
 62
    2
 10
958.35324701827596
 20
917.46192893400973
 11
983.3532470182763
 21
942.46192893401018
  0
LINE
  8
_0-3_
  6
CONTINUOUS
 62
    2
 10
935.72583002030319
 20
917.46192893401018
 11
960.72583002030364
 21
942.46192893401052
  0
LINE
  8
_0-3_
  6
CONTINUOUS
 62
    2
 10
913.09841302233655
 20
917.46192893400973
 11
938.09841302233735
 21
942.46192893401052
  0
LINE
  8
_0-3_
  6
CONTINUOUS
 62
    2
 10
890.47099602436389
 20
917.46192893401052
 11
915.4709960243623
 21
942.46192893400893
  0
LINE
  8
_0-3_
  6
CONTINUOUS
 62
    2
 10
867.84357902639612
 20
917.46192893400893
 11
892.84357902639794
 21
942.46192893401052
  0
LINE
  8
_0-3_
  6
CONTINUOUS
 62
    2
 10
822.58874503045672
 20
917.46192893400893
 11
847.58874503045865
 21
942.46192893401052
  0
LINE
  8
_0-3_
  6
CONTINUOUS
 62
    2
 10
799.96132803248565
 20
917.46192893401109
 11
824.96132803248303
 21
942.46192893400836
  0
LINE
  8
_0-3_
  6
CONTINUOUS
 62
    2
 10
777.33391103451765
 20
917.4619289340095
 11
802.33391103451936
 21
942.46192893401109
  0
LINE
  8
_0-3_
  6
CONTINUOUS
 62
    2
 10
754.70649403654624
 20
917.46192893401143
 11
779.70649403654363
 21
942.46192893400836
  0
LINE
  8
_0-3_
  6
CONTINUOUS
 62
    2
 10
732.07907703857881
 20
917.4619289340095
 11
757.07907703858006
 21
942.46192893401109
  0
LINE
  8
_0-3_
  6
CONTINUOUS
 62
    2
 10
709.45166004061286
 20
917.46192893400973
 11
734.45166004061252
 21
942.4619289340095
  0
LINE
  8
_0-3_
  6
CONTINUOUS
 62
    2
 10
686.8242430426394
 20
917.46192893400973
 11
711.824243042641
 21
942.46192893401143
  0
LINE
  8
_0-3_
  6
CONTINUOUS
 62
    2
 10
664.19682604467243
 20
917.46192893400836
 11
689.19682604467311
 21
942.4619289340095
  0
LINE
  8
_0-3_
  6
CONTINUOUS
 62
    2
 10
641.56940904670011
 20
917.46192893400973
 11
666.5694090467017
 21
942.46192893401143
  0
LINE
  8
_0-3_
  6
CONTINUOUS
 62
    2
 10
618.94199204873314
 20
917.46192893400893
 11
643.94199204873393
 21
942.46192893400973
  0
LINE
  8
_0-3_
  6
CONTINUOUS
 62
    2
 10
596.31457505076105
 20
917.46192893401018
 11
621.31457505076252
 21
942.46192893401189
  0
LINE
  8
_0-3_
  6
CONTINUOUS
 62
    2
 10
274.99999999999931
 20
618.77477088121463
 11
300.00000000000045
 21
643.77477088121543
  0
LINE
  8
_0-3_
  6
CONTINUOUS
 62
    2
 10
573.68715805279373
 20
917.46192893400893
 11
598.68715805279464
 21
942.46192893400973
  0
LINE
  8
_0-3_
  6
CONTINUOUS
 62
    2
 10
274.99999999999852
 20
641.40218787918718
 11
299.99999999999931
 21
666.40218787918797
  0
LINE
  8
_0-3_
  6
CONTINUOUS
 62
    2
 10
551.05974105482175
 20
917.46192893401018
 11
576.05974105482277
 21
942.46192893401143
  0
LINE
  8
_0-3_
  6
CONTINUOUS
 62
    2
 10
274.9999999999992
 20
664.02960487715392
 11
300.00000000000045
 21
689.02960487715483
  0
LINE
  8
_0-3_
  6
CONTINUOUS
 62
    2
 10
528.43232405685444
 20
917.46192893400893
 11
553.43232405685535
 21
942.46192893401018
  0
LINE
  8
_0-3_
  6
CONTINUOUS
 62
    2
 10
274.99999999999829
 20
686.65702187512613
 11
299.99999999999931
 21
711.65702187512704
  0
LINE
  8
_0-3_
  6
CONTINUOUS
 62
    2
 10
505.80490705888252
 20
917.46192893401052
 11
530.80490705888325
 21
942.46192893401143
  0
LINE
  8
_0-3_
  6
CONTINUOUS
 62
    2
 10
275
 20
709.2844388730939
 11
300.00000000000113
 21
734.28443887309492
  0
LINE
  8
_0-3_
  6
CONTINUOUS
 62
    2
 10
274.99999999999954
 20
731.91185587106679
 11
299.99999999999897
 21
756.91185587106633
  0
LINE
  8
_0-3_
  6
CONTINUOUS
 62
    2
 10
274.99999999999977
 20
754.53927286903308
 11
300.00000000000079
 21
779.53927286903387
  0
LINE
  8
_0-3_
  6
CONTINUOUS
 62
    2
 10
437.92265606497591
 20
917.4619289340095
 11
462.92265606497682
 21
942.46192893401018
  0
LINE
  8
_0-3_
  6
CONTINUOUS
 62
    2
 10
274.99999999999931
 20
777.16668986700597
 11
299.99999999999886
 21
802.16668986700574
  0
LINE
  8
_0-3_
  6
CONTINUOUS
 62
    2
 10
415.29523906700421
 20
917.46192893401109
 11
440.29523906700319
 21
942.46192893400973
  0
LINE
  8
_0-3_
  6
CONTINUOUS
 62
    2
 10
274.99999999999954
 20
799.79410686497237
 11
300.00000000000068
 21
824.79410686497351
  0
LINE
  8
_0-3_
  6
CONTINUOUS
 62
    2
 10
392.6678220690365
 20
917.4619289340095
 11
417.66782206903758
 21
942.46192893401052
  0
LINE
  8
_0-3_
  6
CONTINUOUS
 62
    2
 10
275.00000000000147
 20
822.42152386294776
 11
299.99999999999863
 21
847.42152386294492
  0
LINE
  8
_0-3_
  6
CONTINUOUS
 62
    2
 10
370.04040507106492
 20
917.46192893401121
 11
395.04040507106208
 21
942.46192893400836
  0
LINE
  8
_0-3_
  6
CONTINUOUS
 62
    2
 10
274.9999999999992
 20
845.04894086091132
 11
300.00000000000045
 21
870.04894086091235
  0
LINE
  8
_0-3_
  6
CONTINUOUS
 62
    2
 10
347.41298807309721
 20
917.4619289340095
 11
372.41298807309851
 21
942.46192893401052
  0
LINE
  8
_0-3_
  6
CONTINUOUS
 62
    2
 10
275.00000000000136
 20
867.67635785888694
 11
299.99999999999852
 21
892.67635785888398
  0
LINE
  8
_0-3_
  6
CONTINUOUS
 62
    2
 10
324.78557107512574
 20
917.46192893401143
 11
349.78557107512278
 21
942.46192893400836
  0
LINE
  8
_0-3_
  6
CONTINUOUS
 62
    2
 10
274.99999999999909
 20
890.30377485685073
 11
300.00000000000022
 21
915.30377485685198
  0
LINE
  8
_0-3_
  6
CONTINUOUS
 62
    2
 10
302.15815407715797
 20
917.46192893400973
 11
327.15815407715922
 21
942.46192893401052
  0
LINE
  8
_0-3_
  6
CONTINUOUS
 62
    2
 10
275.00000000000136
 20
912.93119185482623
 11
304.5307370791836
 21
942.46192893400836
  0
LINE
  8
_0-3_
  6
CONTINUOUS
 62
    2
 10
274.99999999999886
 20
935.55860885278957
 11
281.90332008121981
 21
942.46192893401109
  0
LINE
  8
_0-3_
  6
CONTINUOUS
 62
    2
 10
1413.185424949238
 20
602.96192893400984
 11
1424.999999999999
 21
614.77650398477044
  0
LINE
  8
_0-3_
  6
CONTINUOUS
 62
    2
 10
1207.254833995938
 20
917.4619289340095
 11
1214.1666666666669
 21
924.37376160473741
  0
LINE
  8
_0-3_
  6
CONTINUOUS
 62
    2
 10
1219.1666666666669
 20
929.37376160473752
 11
1232.25483399594
 21
942.46192893401109
  0
LINE
  8
_0-3_
  6
CONTINUOUS
 62
    2
 10
845.21616202842494
 20
917.46192893401052
 11
847.49999999999988
 21
919.74576690558603
  0
LINE
  8
_0-3_
  6
CONTINUOUS
 62
    2
 10
852.5
 20
924.74576690558615
 11
870.21616202842335
 21
942.4619289340095
  0
LINE
  8
_0-3_
  6
CONTINUOUS
 62
    2
 10
460.55007306294328
 20
917.46192893401052
 11
480.83333333333308
 21
937.7451892044005
  0
LINE
  8
_0-3_
  6
CONTINUOUS
 62
    2
 10
485.8333333333332
 20
920.11777220642738
 11
508.17749006091622
 21
942.46192893401018
  0
LINE
  8
_0-3_
  6
CONTINUOUS
 62
    2
 10
281.81457505076048
 20
602.96192893400984
 11
299.99999999999954
 21
621.14735388324868
  0
LINE
  8
_0-3_
  6
CONTINUOUS
 62
    2
 10
300
 20
33.461928934010188
 11
300
 21
143.46192893401018
  0
LINE
  8
_0-3_
  6
CONTINUOUS
 62
    2
 10
1400
 20
33.461928934010188
 11
1400
 21
143.46192893401018
  0
LINE
  8
_0-3_
  6
CONTINUOUS
 62
    2
 10
1409.3708498984778
 20
33.461928934010302
 11
1425
 21
49.091079035532516
  0
LINE
  8
_0-3_
  6
CONTINUOUS
 62
    2
 10
1400
 20
46.718496033505516
 11
1425
 21
71.718496033506198
  0
LINE
  8
_0-3_
  6
CONTINUOUS
 62
    2
 10
1399.999999999999
 20
69.345913031471241
 11
1425
 21
94.345913031471923
  0
LINE
  8
_0-3_
  6
CONTINUOUS
 62
    2
 10
1400
 20
91.973330029444866
 11
1425
 21
116.9733300294456
  0
LINE
  8
_0-3_
  6
CONTINUOUS
 62
    2
 10
1400.000000000002
 20
114.60074702741269
 11
1425
 21
139.60074702741133
  0
LINE
  8
_0-3_
  6
CONTINUOUS
 62
    2
 10
1400
 20
137.22816402538433
 11
1406.233764908625
 21
143.46192893401018
  0
LINE
  8
_0-3_
  6
CONTINUOUS
 62
    2
 10
278.00000000000011
 20
33.461928934010416
 11
300.00000000000045
 21
55.461928934010643
  0
LINE
  8
_0-3_
  6
CONTINUOUS
 62
    2
 10
275.00000000000113
 20
62.089345931977504
 11
299.9999999999992
 21
87.089345931975572
  0
LINE
  8
_0-3_
  6
CONTINUOUS
 62
    2
 10
274.99999999999977
 20
84.716762929949368
 11
300.00000000000045
 21
109.71676292994999
  0
LINE
  8
_0-3_
  6
CONTINUOUS
 62
    2
 10
275.00000000000022
 20
98.344179927916002
 11
300.00000000000045
 21
123.34417992791628
  0
LINE
  8
_0-3_
  6
CONTINUOUS
 62
    2
 10
274.99999999999977
 20
120.97159692588866
 11
297.49033200812073
 21
143.46192893400984
  0
LINE
  8
_0-3_
  6
CONTINUOUS
 62
    2
 10
278.00000000000011
 20
33.461928934010416
 11
300.00000000000045
 21
55.461928934010643
  0
LINE
  8
_0-3_
  6
CONTINUOUS
 62
    2
 10
275.00000000000113
 20
62.089345931977504
 11
299.9999999999992
 21
87.089345931975572
  0
LINE
  8
_0-3_
  6
CONTINUOUS
 62
    2
 10
274.99999999999977
 20
84.716762929949368
 11
300.00000000000045
 21
109.71676292994999
  0
LINE
  8
_0-3_
  6
CONTINUOUS
 62
    2
 10
275.00000000000022
 20
98.344179927916002
 11
300.00000000000045
 21
123.34417992791628
  0
LINE
  8
_0-3_
  6
CONTINUOUS
 62
    2
 10
274.99999999999977
 20
120.97159692588866
 11
297.49033200812073
 21
143.46192893400984
  0
LINE
  8
_0-3_
  6
CONTINUOUS
 62
    2
 10
1400
 20
597.96192893400973
 11
1400
 21
283.46192893400939
  0
LINE
  8
_0-3_
  6
CONTINUOUS
 62
    2
 10
300
 20
283.46192893400939
 11
300
 21
597.96192893400973
  0
LINE
  8
_0-3_
  6
CONTINUOUS
 62
    2
 10
1408.096679918782
 20
258.4619289340116
 11
1424.999999999999
 21
275.36524901522818
  0
LINE
  8
_0-3_
  6
CONTINUOUS
 62
    2
 10
1385.4692629208138
 20
258.46192893400979
 11
1410.469262920815
 21
283.4619289340103
  0
LINE
  8
_0-3_
  6
CONTINUOUS
 62
    2
 10
1362.841845922843
 20
258.46192893401178
 11
1387.841845922841
 21
283.46192893401018
  0
LINE
  8
_0-3_
  6
CONTINUOUS
 62
    2
 10
1340.2144289248749
 20
258.4619289340099
 11
1365.214428924876
 21
283.46192893401058
  0
LINE
  8
_0-3_
  6
CONTINUOUS
 62
    2
 10
1317.5870119269009
 20
258.46192893400979
 11
1342.587011926902
 21
283.4619289340103
  0
LINE
  8
_0-3_
  6
CONTINUOUS
 62
    2
 10
1294.9595949289359
 20
258.46192893401018
 11
1319.9595949289359
 21
283.46192893401058
  0
LINE
  8
_0-3_
  6
CONTINUOUS
 62
    2
 10
1272.3321779309599
 20
258.46192893400797
 11
1297.332177930961
 21
283.46192893400848
  0
LINE
  8
_0-3_
  6
CONTINUOUS
 62
    2
 10
1249.7047609329958
 20
258.4619289340103
 11
1274.704760932997
 21
283.46192893401087
  0
LINE
  8
_0-3_
  6
CONTINUOUS
 62
    2
 10
1227.0773439350209
 20
258.46192893400836
 11
1252.077343935022
 21
283.46192893400876
  0
LINE
  8
_0-3_
  6
CONTINUOUS
 62
    2
 10
1181.822509939082
 20
258.46192893400859
 11
1206.8225099390829
 21
283.4619289340091
  0
LINE
  8
_0-3_
  6
CONTINUOUS
 62
    2
 10
1159.1950929411179
 20
258.46192893401058
 11
1184.1950929411159
 21
283.4619289340091
  0
LINE
  8
_0-3_
  6
CONTINUOUS
 62
    2
 10
1136.567675943143
 20
258.46192893400876
 11
1161.567675943143
 21
283.46192893400927
  0
LINE
  8
_0-3_
  6
CONTINUOUS
 62
    2
 10
1113.9402589451779
 20
258.46192893401081
 11
1138.9402589451769
 21
283.46192893400927
  0
LINE
  8
_0-3_
  6
CONTINUOUS
 62
    2
 10
1091.3128419472041
 20
258.4619289340091
 11
1116.3128419472041
 21
283.46192893400956
  0
LINE
  8
_0-3_
  6
CONTINUOUS
 62
    2
 10
1068.6854249492389
 20
258.46192893401087
 11
1093.685424949238
 21
283.4619289340095
  0
LINE
  8
_0-3_
  6
CONTINUOUS
 62
    2
 10
1046.058007951264
 20
258.46192893400859
 11
1071.0580079512649
 21
283.46192893400927
  0
LINE
  8
_0-3_
  6
CONTINUOUS
 62
    2
 10
1023.4305909532999
 20
258.46192893401109
 11
1048.430590953299
 21
283.46192893400956
  0
LINE
  8
_0-3_
  6
CONTINUOUS
 62
    2
 10
1000.8031739553249
 20
258.46192893400876
 11
1025.803173955325
 21
283.46192893400939
  0
LINE
  8
_0-3_
  6
CONTINUOUS
 62
    2
 10
978.17575695736115
 20
258.46192893401121
 11
1003.1757569573589
 21
283.46192893400979
  0
LINE
  8
_0-3_
  6
CONTINUOUS
 62
    2
 10
955.54833995938565
 20
258.46192893400888
 11
980.54833995938599
 21
283.4619289340095
  0
LINE
  8
_0-3_
  6
CONTINUOUS
 62
    2
 10
932.92092296142186
 20
258.46192893401126
 11
957.92092296142027
 21
283.4619289340099
  0
LINE
  8
_0-3_
  6
CONTINUOUS
 62
    2
 10
910.29350596345443
 20
258.46192893400979
 11
935.29350596345477
 21
283.4619289340103
  0
LINE
  8
_0-3_
  6
CONTINUOUS
 62
    2
 10
887.66608896548063
 20
258.4619289340095
 11
912.66608896548132
 21
283.46192893401007
  0
LINE
  8
_0-3_
  6
CONTINUOUS
 62
    2
 10
865.0386719675148
 20
258.4619289340099
 11
890.03867196751559
 21
283.46192893401047
  0
LINE
  8
_0-3_
  6
CONTINUOUS
 62
    2
 10
819.78383797157562
 20
258.4619289340099
 11
844.78383797157596
 21
283.46192893401058
  0
LINE
  8
_0-3_
  6
CONTINUOUS
 62
    2
 10
797.15642097360102
 20
258.46192893400888
 11
822.15642097360171
 21
283.46192893400939
  0
LINE
  8
_0-3_
  6
CONTINUOUS
 62
    2
 10
774.52900397563644
 20
258.46192893401018
 11
799.52900397563701
 21
283.4619289340107
  0
LINE
  8
_0-3_
  6
CONTINUOUS
 62
    2
 10
751.90158697766173
 20
258.4619289340091
 11
776.90158697766253
 21
283.46192893400956
  0
LINE
  8
_0-3_
  6
CONTINUOUS
 62
    2
 10
729.27416997969714
 20
258.46192893401047
 11
754.27416997969544
 21
283.46192893400876
  0
LINE
  8
_0-3_
  6
CONTINUOUS
 62
    2
 10
706.64675298172255
 20
258.46192893400939
 11
731.64675298172312
 21
283.4619289340099
  0
LINE
  8
_0-3_
  6
CONTINUOUS
 62
    2
 10
684.01933598375774
 20
258.46192893401058
 11
709.0193359837566
 21
283.4619289340091
  0
LINE
  8
_0-3_
  6
CONTINUOUS
 62
    2
 10
661.3919189857836
 20
258.46192893400956
 11
686.39191898578405
 21
283.46192893401018
  0
LINE
  8
_0-3_
  6
CONTINUOUS
 62
    2
 10
638.76450198781844
 20
258.46192893401058
 11
663.76450198781719
 21
283.4619289340091
  0
LINE
  8
_0-3_
  6
CONTINUOUS
 62
    2
 10
616.13708498984317
 20
258.46192893400836
 11
641.13708498984362
 21
283.4619289340091
  0
LINE
  8
_0-3_
  6
CONTINUOUS
 62
    2
 10
593.50966799187915
 20
258.46192893401087
 11
618.50966799187767
 21
283.46192893400939
  0
LINE
  8
_0-3_
  6
CONTINUOUS
 62
    2
 10
570.88225099390376
 20
258.46192893400859
 11
595.88225099390422
 21
283.46192893400927
  0
LINE
  8
_0-3_
  6
CONTINUOUS
 62
    2
 10
548.2548339959402
 20
258.46192893401109
 11
573.25483399593872
 21
283.4619289340095
  0
LINE
  8
_0-3_
  6
CONTINUOUS
 62
    2
 10
525.62741699796436
 20
258.46192893400876
 11
550.62741699796515
 21
283.46192893400939
  0
LINE
  8
_0-3_
  6
CONTINUOUS
 62
    2
 10
503.00000000000079
 20
258.46192893401121
 11
527.99999999999943
 21
283.46192893400979
  0
LINE
  8
_0-3_
  6
CONTINUOUS
 62
    2
 10
435.11774900609401
 20
258.46192893400979
 11
460.11774900609452
 21
283.46192893401018
  0
LINE
  8
_0-3_
  6
CONTINUOUS
 62
    2
 10
412.49033200812027
 20
258.4619289340095
 11
437.4903320081209
 21
283.4619289340099
  0
LINE
  8
_0-3_
  6
CONTINUOUS
 62
    2
 10
389.86291501015472
 20
258.4619289340099
 11
414.86291501015517
 21
283.46192893401047
  0
LINE
  8
_0-3_
  6
CONTINUOUS
 62
    2
 10
367.23549801218092
 20
258.4619289340095
 11
392.23549801218149
 21
283.4619289340099
  0
LINE
  8
_0-3_
  6
CONTINUOUS
 62
    2
 10
344.60808101421548
 20
258.4619289340099
 11
369.60808101421622
 21
283.46192893401058
  0
LINE
  8
_0-3_
  6
CONTINUOUS
 62
    2
 10
321.9806640162418
 20
258.46192893400979
 11
346.98066401624231
 21
283.46192893401018
  0
LINE
  8
_0-3_
  6
CONTINUOUS
 62
    2
 10
299.35324701827619
 20
258.46192893401018
 11
324.35324701827676
 21
283.46192893401058
  0
LINE
  8
_0-3_
  6
CONTINUOUS
 62
    2
 10
276.72583002030273
 20
258.4619289340099
 11
301.72583002030307
 21
283.46192893401047
  0
LINE
  8
_0-3_
  6
CONTINUOUS
 62
    2
 10
275.00000000000045
 20
279.3635159116738
 11
279.09841302233553
 21
283.46192893400876
  0
LINE
  8
_0-3_
  6
CONTINUOUS
 62
    2
 10
1204.4499269370569
 20
258.46192893401047
 11
1214.1666666666669
 21
268.17866866361981
  0
LINE
  8
_0-3_
  6
CONTINUOUS
 62
    2
 10
1219.1666666666669
 20
273.17866866361981
 11
1229.449926937058
 21
283.46192893401109
  0
LINE
  8
_0-3_
  6
CONTINUOUS
 62
    2
 10
1219.1666666666669
 20
283.46192893400876
 11
1425
 21
283.46192893400876
  0
LINE
  8
_0-3_
  6
CONTINUOUS
 62
    2
 10
842.41125496954146
 20
258.46192893400979
 11
847.50000000000011
 21
263.5506739644685
  0
LINE
  8
_0-3_
  6
CONTINUOUS
 62
    2
 10
852.50000000000034
 20
268.55067396446838
 11
867.41125496954191
 21
283.4619289340103
  0
LINE
  8
_0-3_
  6
CONTINUOUS
 62
    2
 10
852.5
 20
283.46192893400876
 11
1214.1666666666669
 21
283.46192893400876
  0
LINE
  8
_0-3_
  6
CONTINUOUS
 62
    2
 10
480.37258300203308
 20
258.4619289340095
 11
480.83333333333308
 21
258.92267926530956
  0
LINE
  8
_0-3_
  6
CONTINUOUS
 62
    2
 10
485.8333333333332
 20
263.92267926530956
 11
505.37258300203359
 21
283.46192893401018
  0
LINE
  8
_0-3_
  6
CONTINUOUS
 62
    2
 10
457.74516600406161
 20
258.46192893401126
 11
480.83333333333308
 21
281.55009626328308
  0
LINE
  8
_0-3_
  6
CONTINUOUS
 62
    2
 10
275
 20
283.46192893400876
 11
480.83333333333308
 21
283.46192893400876
  0
LINE
  8
_0-3_
  6
CONTINUOUS
 62
    2
 10
485.8333333333332
 20
283.46192893400876
 11
847.49999999999988
 21
283.46192893400876
  0
LINE
  8
_0-3_
  6
CONTINUOUS
 62
    2
 10
1410.469262920815
 20
283.46192893401047
 11
1424.9999999999979
 21
297.99266601319408
  0
LINE
  8
_0-3_
  6
CONTINUOUS
 62
    2
 10
1400.0000000000009
 20
295.62008301116918
 11
1424.999999999999
 21
320.62008301116748
  0
LINE
  8
_0-3_
  6
CONTINUOUS
 62
    2
 10
1399.9999999999979
 20
318.24750000913286
 11
1424.9999999999979
 21
343.24750000913337
  0
LINE
  8
_0-3_
  6
CONTINUOUS
 62
    2
 10
1400
 20
340.87491700710836
 11
1424.9999999999979
 21
365.87491700710671
  0
LINE
  8
_0-3_
  6
CONTINUOUS
 62
    2
 10
1399.9999999999979
 20
363.50233400507221
 11
1424.9999999999979
 21
388.50233400507278
  0
LINE
  8
_0-3_
  6
CONTINUOUS
 62
    2
 10
1400
 20
386.1297510030476
 11
1425
 21
411.12975100304777
  0
LINE
  8
_0-3_
  6
CONTINUOUS
 62
    2
 10
1399.9999999999979
 20
408.7571680010115
 11
1424.9999999999979
 21
433.75716800101196
  0
LINE
  8
_0-3_
  6
CONTINUOUS
 62
    2
 10
1400
 20
431.384584998987
 11
1425
 21
456.38458499898706
  0
LINE
  8
_0-3_
  6
CONTINUOUS
 62
    2
 10
1399.9999999999979
 20
454.01200199695097
 11
1424.9999999999979
 21
479.01200199695148
  0
LINE
  8
_0-3_
  6
CONTINUOUS
 62
    2
 10
1399.999999999999
 20
476.63941899492596
 11
1425
 21
501.63941899492641
  0
LINE
  8
_0-3_
  6
CONTINUOUS
 62
    2
 10
1399.999999999999
 20
499.26683599289179
 11
1425
 21
524.26683599289174
  0
LINE
  8
_0-3_
  6
CONTINUOUS
 62
    2
 10
1399.999999999999
 20
521.89425299086531
 11
1425
 21
546.89425299086633
  0
LINE
  8
_0-3_
  6
CONTINUOUS
 62
    2
 10
1400.0000000000009
 20
544.52166998883296
 11
1424.999999999999
 21
569.52166998883092
  0
LINE
  8
_0-3_
  6
CONTINUOUS
 62
    2
 10
1399.999999999999
 20
567.14908698680437
 11
1425
 21
592.14908698680585
  0
LINE
  8
_0-3_
  6
CONTINUOUS
 62
    2
 10
279.09841302233508
 20
283.46192893400836
 11
300.00000000000079
 21
304.36351591167419
  0
LINE
  8
_0-3_
  6
CONTINUOUS
 62
    2
 10
274.9999999999984
 20
301.99093290964538
 11
299.99999999999897
 21
326.99093290964577
  0
LINE
  8
_0-3_
  6
CONTINUOUS
 62
    2
 10
275
 20
324.61834990761286
 11
300.00000000000068
 21
349.61834990761349
  0
LINE
  8
_0-3_
  6
CONTINUOUS
 62
    2
 10
274.9999999999984
 20
347.2457669055845
 11
299.99999999999886
 21
372.24576690558501
  0
LINE
  8
_0-3_
  6
CONTINUOUS
 62
    2
 10
275
 20
369.8731839035521
 11
300.00000000000068
 21
394.87318390355278
  0
LINE
  8
_0-3_
  6
CONTINUOUS
 62
    2
 10
275.00000000000045
 20
392.50060090152589
 11
299.99999999999863
 21
417.50060090152396
  0
LINE
  8
_0-3_
  6
CONTINUOUS
 62
    2
 10
274.99999999999954
 20
415.12801789949116
 11
300.00000000000045
 21
440.1280178994919
  0
LINE
  8
_0-3_
  6
CONTINUOUS
 62
    2
 10
275.00000000000045
 20
437.75543489746507
 11
299.9999999999984
 21
462.75543489746337
  0
LINE
  8
_0-3_
  6
CONTINUOUS
 62
    2
 10
274.99999999999931
 20
460.3828518954304
 11
300.00000000000022
 21
485.38285189543097
  0
LINE
  8
_0-3_
  6
CONTINUOUS
 62
    2
 10
274.99999999999977
 20
483.01026889339669
 11
299.9999999999984
 21
508.01026889339527
  0
LINE
  8
_0-3_
  6
CONTINUOUS
 62
    2
 10
274.9999999999992
 20
505.63768589136958
 11
300
 21
530.63768589137032
  0
LINE
  8
_0-3_
  6
CONTINUOUS
 62
    2
 10
274.99999999999954
 20
528.26510288933593
 11
300.00000000000068
 21
553.26510288933695
  0
LINE
  8
_0-3_
  6
CONTINUOUS
 62
    2
 10
274.99999999999897
 20
550.8925198873087
 11
299.99999999999977
 21
575.89251988730961
  0
LINE
  8
_0-3_
  6
CONTINUOUS
 62
    2
 10
1400.0000000000009
 20
589.77650398477226
 11
1408.185424949238
 21
597.96192893400962
  0
LINE
  8
_0-3_
  6
CONTINUOUS
 62
    2
 10
274.99999999999886
 20
596.14735388324788
 11
276.81457505076048
 21
597.96192893400973
  0
LINE
  8
_0-3_
  6
CONTINUOUS
 62
    2
 10
274.99999999999954
 20
573.51993688527534
 11
299.4419920487337
 21
597.96192893400962
  0
LINE
  8
_0-3_
  6
CONTINUOUS
 62
    2
 10
1527
 20
283.46192893400939
 11
1527
 21
278.6619289340096
  0
LINE
  8
_0-3_
  6
CONTINUOUS
 62
    2
 10
1527
 20
278.6619289340096
 11
1563
 21
278.6619289340096
  0
LINE
  8
_0-3_
  6
CONTINUOUS
 62
    2
 10
1563
 20
283.46192893400939
 11
1563
 21
278.6619289340096
  0
LINE
  8
_0-3_
  6
CONTINUOUS
 62
    2
 10
1565.4499999999989
 20
932.86192893400993
 11
1524.4499999999989
 21
932.86192893400993
  0
LINE
  8
_0-3_
  6
CONTINUOUS
 62
    2
 10
1524.4499999999989
 20
932.86192893400993
 11
1524.4499999999989
 21
917.46192893400973
  0
LINE
  8
_0-3_
  6
CONTINUOUS
 62
    2
 10
1565.4499999999989
 20
917.46192893400962
 11
1565.4499999999989
 21
932.86192893400993
  0
LINE
  8
_0-2_
  6
CONTINUOUS
 62
    4
 10
1530.9499999999989
 20
922.46192893400984
 11
1535.9499999999989
 21
922.46192893400984
  0
LINE
  8
_0-2_
  6
CONTINUOUS
 62
    4
 10
1542.4499999999989
 20
922.46192893400984
 11
1547.4499999999989
 21
922.46192893400984
  0
LINE
  8
_0-2_
  6
CONTINUOUS
 62
    4
 10
1553.9499999999989
 20
922.46192893400984
 11
1558.9499999999989
 21
922.46192893400984
  0
LINE
  8
_0-2_
  6
CONTINUOUS
 62
    4
 10
1553.9499999999989
 20
602.96192893400984
 11
1553.9499999999989
 21
922.46192893400984
  0
LINE
  8
_0-2_
  6
CONTINUOUS
 62
    4
 10
1558.9499999999989
 20
602.96192893400984
 11
1558.9499999999989
 21
922.46192893400984
  0
LINE
  8
_0-2_
  6
CONTINUOUS
 62
    4
 10
1547.4499999999989
 20
602.96192893400984
 11
1547.4499999999989
 21
922.46192893400984
  0
LINE
  8
_0-2_
  6
CONTINUOUS
 62
    4
 10
1542.4499999999989
 20
602.96192893400984
 11
1542.4499999999989
 21
922.46192893400984
  0
LINE
  8
_0-2_
  6
CONTINUOUS
 62
    4
 10
1535.9499999999989
 20
602.96192893400984
 11
1535.9499999999989
 21
922.46192893400984
  0
LINE
  8
_0-2_
  6
CONTINUOUS
 62
    4
 10
1530.9499999999989
 20
602.96192893400984
 11
1530.9499999999989
 21
922.46192893400984
  0
LINE
  8
_0-2_
  6
CONTINUOUS
 62
    4
 10
1530.9499999999989
 20
305.96192893400939
 11
1530.9499999999989
 21
597.96192893400973
  0
LINE
  8
_0-2_
  6
CONTINUOUS
 62
    4
 10
1558.9499999999989
 20
305.96192893400939
 11
1558.9499999999989
 21
597.96192893400973
  0
LINE
  8
_0-2_
  6
CONTINUOUS
 62
    4
 10
1553.9499999999989
 20
305.96192893400939
 11
1553.9499999999989
 21
597.96192893400973
  0
LINE
  8
_0-2_
  6
CONTINUOUS
 62
    4
 10
1542.4499999999989
 20
305.96192893400939
 11
1542.4499999999989
 21
597.96192893400973
  0
LINE
  8
_0-2_
  6
CONTINUOUS
 62
    4
 10
1547.4499999999989
 20
305.96192893400939
 11
1547.4499999999989
 21
597.96192893400973
  0
LINE
  8
_0-2_
  6
CONTINUOUS
 62
    4
 10
1535.9499999999989
 20
305.96192893400939
 11
1535.9499999999989
 21
597.96192893400973
  0
LINE
  8
_0-2_
  6
CONTINUOUS
 62
    4
 10
1053.333333333333
 20
602.96192893400984
 11
1053.333333333333
 21
917.46192893400973
  0
LINE
  8
_0-2_
  6
CONTINUOUS
 62
    4
 10
1013.333333333333
 20
602.96192893400984
 11
1013.333333333333
 21
917.46192893400973
  0
LINE
  8
_0-2_
  6
CONTINUOUS
 62
    4
 10
646.66666666666674
 20
602.96192893400984
 11
646.66666666666674
 21
917.46192893400973
  0
LINE
  8
_0-2_
  6
CONTINUOUS
 62
    4
 10
686.66666666666674
 20
602.96192893400984
 11
686.66666666666674
 21
917.46192893400973
  0
LINE
  8
_0-2_
  6
CONTINUOUS
 62
    4
 10
810.39399000085973
 20
730.56154641964042
 11
698.29434587274579
 21
618.46190229152682
  0
LINE
  8
_0-2_
  6
CONTINUOUS
 62
    4
 10
443.72732333419298
 20
730.56154641964042
 11
331.62767920607922
 21
618.46190229152682
  0
LINE
  8
_0-2_
  6
CONTINUOUS
 62
    4
 10
1177.060656667526
 20
730.56154641964042
 11
1064.9610125394119
 21
618.46190229152682
  0
LINE
  8
_0-2_
  6
CONTINUOUS
 62
    4
 10
301.20000000000004
 20
602.96192893400984
 11
301.20000000000004
 21
917.46192893400973
  0
LINE
  8
_0-2_
  6
CONTINUOUS
 62
    4
 10
1398.7999999999999
 20
602.96192893400984
 11
1398.7999999999999
 21
917.46192893400973
  0
LINE
  8
_0-2_
  6
CONTINUOUS
 62
    4
 10
485.83333333333462
 20
97.411928934010006
 11
686.66666666666878
 21
97.411928934010006
  0
LINE
  8
_0-2_
  6
CONTINUOUS
 62
    4
 10
686.66666666666878
 20
102.41192893401017
 11
485.83333333333462
 21
102.41192893401017
  0
LINE
  8
_0-2_
  6
CONTINUOUS
 62
    4
 10
301.20000000000072
 20
97.411928934010063
 11
480.8333333333357
 21
97.411928934010006
  0
LINE
  8
_0-2_
  6
CONTINUOUS
 62
    4
 10
480.8333333333357
 20
102.41192893401029
 11
301.20000000000072
 21
102.41192893401029
  0
LINE
  8
_0-2_
  6
CONTINUOUS
 62
    4
 10
1013.333333333334
 20
74.411928934009893
 11
1214.1666666666669
 21
74.411928934009893
  0
LINE
  8
_0-2_
  6
CONTINUOUS
 62
    4
 10
1214.1666666666669
 20
79.41192893401012
 11
1013.333333333334
 21
79.411928934010234
  0
LINE
  8
_0-2_
  6
CONTINUOUS
 62
    4
 10
1398.7999999999999
 20
79.41192893401012
 11
1219.1666666666669
 21
79.41192893401012
  0
LINE
  8
_0-2_
  6
CONTINUOUS
 62
    4
 10
1219.1666666666669
 20
74.411928934009893
 11
1398.7999999999999
 21
74.411928934009893
  0
LINE
  8
_0-2_
  6
CONTINUOUS
 62
    4
 10
852.49999999999954
 20
85.911928934009949
 11
1053.333333333333
 21
85.911928934009949
  0
LINE
  8
_0-2_
  6
CONTINUOUS
 62
    4
 10
1053.333333333333
 20
90.811928934010211
 11
852.49999999999954
 21
90.811928934010211
  0
LINE
  8
_0-2_
  6
CONTINUOUS
 62
    4
 10
646.66666666666674
 20
85.911928934010006
 11
847.49999999999954
 21
85.911928934009949
  0
LINE
  8
_0-2_
  6
CONTINUOUS
 62
    4
 10
847.49999999999954
 20
90.911928934010234
 11
646.66666666666674
 21
90.911928934010234
  0
LINE
  8
_0-2_
  6
CONTINUOUS
 62
    4
 10
1053.333333333333
 20
328.16192893400921
 11
1053.333333333333
 21
597.96192893400973
  0
LINE
  8
_0-2_
  6
CONTINUOUS
 62
    4
 10
1013.333333333333
 20
328.16192893400921
 11
1013.333333333333
 21
597.96192893400973
  0
LINE
  8
_0-2_
  6
CONTINUOUS
 62
    4
 10
646.66666666666674
 20
328.16192893400921
 11
646.66666666666674
 21
597.96192893400973
  0
LINE
  8
_0-2_
  6
CONTINUOUS
 62
    4
 10
686.66666666666674
 20
328.16192893400921
 11
686.66666666666674
 21
597.96192893400973
  0
LINE
  8
_0-2_
  6
CONTINUOUS
 62
    4
 10
980.0996174856308
 20
560.85591893486935
 11
867.99997335751697
 21
448.75627480675541
  0
LINE
  8
_0-2_
  6
CONTINUOUS
 62
    4
 10
613.4329508189644
 20
560.85591893486935
 11
501.33330669085052
 21
448.75627480675541
  0
LINE
  8
_0-2_
  6
CONTINUOUS
 62
    4
 10
1346.7662841522981
 20
560.85591893486935
 11
1234.666640024184
 21
448.75627480675541
  0
LINE
  8
_0-2_
  6
CONTINUOUS
 62
    4
 10
1398.7999999999999
 20
328.16192893400921
 11
1398.7999999999999
 21
597.96192893400973
  0
LINE
  8
_0-2_
  6
CONTINUOUS
 62
    4
 10
301.20000000000004
 20
328.16192893400921
 11
301.20000000000004
 21
597.96192893400973
  0
ENDSEC
  0
EOF
